Course Of Nature - Caught In The Sun Chords & Tabs

 

Caught In The Sun Chords & Tabs

Course Of Nature Chords & Tabs

Version: 6 Type: Tab 0 ratings
1 star 2 stars 3 stars 4 stars 5 stars
comments

Caught In The Sun Tab

   
CAUGHT IN THE SUN

Guitar tuned one whole step down(Eb Ab Db Gb A# Eb)


Intro/Verse(strumming not shown)
    A#m    G#    F#dim5 F# F#dim5 F#
eb|--------------------------------|
a#|-3------2-------2--3----2--3----|
Gb|-4------2-------0--0----0--0----|
Db|-4------2-------0--0----0--0----|
Ab|-2------0-------2--2----2--2----|
Eb|----------------3--3----3--3----|


Chorus
    Db5    Ab5    Gb5    A#5      Ab5
eb|----------------------------------------|
a#|----------------------------------------|
Gb|-7--------------------------------------|
Db|-7------7------5------9-9-9-9--7-7-7-7--|
Ab|-5------7------5------9-9-9-9--7-7-7-7--|
Eb|--------5------3------7-7-7-7--5-5-5-5--|
[ Tab from: http://www.guitartabs.cc/tabs/c/course_of_nature/caught_in_the_sun_tab_ver_6.html ]
Bridge(strumming not shown)
    A5     B5     Db5
eb|----------------------|
a#|----------------------|
Gb|-3------5------7------|
Db|-3------5------7------|
Ab|-1------3------5------|
Eb|----------------------|


Solo

eb|-------17---------------------------------|
a#|-14-15----15-14-15-14-15-17-15-14-15------|
Gb|-------------------------------------14---|
Db|------------------------------------------|
Ab|------------------------------------------|
Eb|------------------------------------------|


eb|-15-14---------------------------|
a#|-------17-15-17-15----15-17-15---|
Gb|---------------------------------|
Db|-------------------17------------|
Ab|---------------------------------|
Eb|---------------------------------|


eb|-------19-17-14-15-14-15-14----17-15-14-15-14----|
a#|-14-15----------------------15-------------------|
Gb|----------------------------------------------14-|
Db|-------------------------------------------------|
Ab|-------------------------------------------------|
Eb|-------------------------------------------------|

Pre-Chorus

eb|----------------------------|
a#|----------------------------|
Gb|-4-4-4-6-6-6-7-7-7-9-9-9----|
Db|-4-4-4-6-6-6-7-7-7-9-9-9----|
Ab|-2-2-2-4-4-4-5-5-5-7-7-7----|
Eb|----------------------------|
Comments