Course Of Nature - Caught In The Sun Chords & Tabs

 

Caught In The Sun Chords & Tabs

Course Of Nature Chords & Tabs

Version: 5 Type: Tab 0 ratings
1 star 2 stars 3 stars 4 stars 5 stars
comments

Caught In The Sun Tab

   
Artist: Course of Nature
Song: Caught in the Sun (Acoustic)
Tabbed by: Tyler H.
Tuning:
Eb
Bb
Gb
Ab
Eb

Verse: 

Eb|---------------------------------------------------------
Bb|---------------------------------------------------------
Gb|-6---6---6-6---6--6-6-6-6-6--6---6---6-6---6--6-6-6-6-6--
Db|-8---8---9-9---8--8-8-8-8-8--6---6---6-6---6--6-6-6-6-6--
Ab|-8---8---9-9---8--8-8-8-8-8--6---6---6-6---6--6-6-6-6-6--
Eb|-6---6---6-6---6--6-6-6-6-6--4---4---4-4---4--4-4-4-4-4--

Eb|-0---0-0-0--0---0---0--0-0-0-0-0-0---0-0-0--0---0--0-0---
Bb|-0---0-0-0--0---0---0--0-0-0-0-0-0---0-0-0--0---0--0-0---
Gb|-5---5-5-6--6---6---6--6-6-6-6-6-5---5-5-6--6---6--6-6---
Db|-4---4-4-4--4---4---4--4-4-4-4-4-4---4-4-4--4---4--4-4---
Ab|-4---4-4-4--4---4---4--4-4-4-4-4-4---4-4-4--4---4--4-4---
Eb|-2---2-2-2--2---2---2--2-2-2-2-2-2---2-2-2--2---2--2-2---


Chorus: 

Eb|-----------------------------------------------------------------------
Bb|-3--------3-3----------------------------------------------------------
Gb|-2--------2-2--2--------2-2-----------4-4-4-4-x-x-2-2-2-2-x-x-2-2-2-2--
Db|-0--------0-0--2--------2-2--5--------4-4-4-4-x-x-2-2-2-2-x-x-2-2-2-2--
Ab|-0--------0-0--0--------0-0--5--------2-2-2-2-x-x-0-0-0-0-x-x-0-0-0-0--
Eb|-----------------------------3-----------------------------------------

Eb|-----------------------------------------------------------------------
Bb|-3--------3-3--3-------------------------------------------------------
Gb|-2--------2-2--2--------2-2-----------------4---4-----2----------------
Db|-0--------0-0--2--------2-2--5----5----5----4---4-----2----------------
Ab|-0--------0-0--0--------0-0--5----5----5----2---2-----0----------------
Eb|-----------------------------3-3--3----3-------------------------------


Bridge:

Eb|-----------------------------------------------------------------------
Bb|-----------------------------------------------------------------------
Gb|-3--3--3--3--3--3--3--3--5--5--5--5--5--5--5--5------------------------
Db|-3--3--3--3--3--3--3--3--5--5--5--5--5--5--5--5------------------------
Ab|-1--1--1--1--1--1--1--1--3--3--3--3--3--3--3--3------------------------
Eb|-----------------------------------------------------------------------

Eb|-----------------------------------------------------------------------
Bb|-----------------------------------------------------------------------
Gb|-5/7-7-7-x-5-5/7-7-7-x-5-5/7-7\5-5/7-7-7-x-5-5/7-7-7-x-5-5/7--7\-------
Db|-5/7-7-7-x-5-5/7-7-7-x-5-5/7-7\5-5/7-7-7-x-5-5/7-7-7-x-5-5/7--7\-------
Ab|-3/5-5-5-x-3-3/5-5-5-x-3-3/5-5\3-3/5-5-5-x-3-3/5-5-5-x-3-3/5--5\-------
Eb|-----------------------------------------------------------------------

Eb|-----------------------------------------------------------------------
Bb|-----------------------------------------------------------------------
Gb|-3-----------------3--3--5--5--5--5--5--5--5--5------------------------
Db|-3--3--3--3--3--3--3--3--5--5--5--5--5--5--5--5------------------------
Ab|-1--1--1--1--1--1--1--1--3--3--3--3--3--3--3--3------------------------
Eb|-----------------------------------------------------------------------
[ Tab from: http://www.guitartabs.cc/tabs/c/course_of_nature/caught_in_the_sun_tab_ver_5.html ]
Eb|-----------------------------------------------------------------------
Bb|-----------------------------------------------------------------------
Gb|-5/7-7-7-x-5-5/7-7-7-x-5-5/7-7\5-5/7-7-7---3---------------------------
Db|-5/7-7-7-x-5-5/7-7-7-x-5-5/7-7\5-5/7-7-7---3---------------------------
Ab|-3/5-5-5-x-3-3/5-5-5-x-3-3/5-5\3-3/5-5-5---1---------------------------
Eb|-----------------------------------------------------------------------


Guitar Solo:

Eb|---------17------------------------------------------------------------
Bb|-----------------------------------17----------------------------------
Gb|-18--19--------19---18-19--18--19-------19---18-19-\14~~~~~~~~~~~~~~~~-
Db|-----------------------------------------------------------------------
Ab|-----------------------------------------------------------------------
Eb|-----------------------------------------------------------------------

Eb|---------------------------------------------/19-----17----------------
Bb|-20p19-17----17--------------17---------------------------19h20-19h20--
Gb|----------19----19------19------19---18--19----------------------------
Db|-------------------17--------------------------------------------------
Ab|-----------------------------------------------------------------------
Eb|-----------------------------------------------------------------------

Eb|-----------17----------------------------------------------------------
Bb|-19-------------20----19h20-19-----------------------------------------
Gb|-----19------------------------\14~~~~-4-4-4-6-6-6-7-7-7-9-9-9-7-7-9-9-
Db|---------------------------------------4-4-4-6-6-6-7-7-7-9-9-9-7-7-9-9-
Ab|---------------------------------------2-2-2-4-4-4-5-5-5-7-7-7-5-5-7-7-
Eb|-----------------------------------------------------------------------

Mini Outro Solo:

D5/A                    A5                        G5  

Eb|-----------------------------------------------------------------------
Bb|-------10-----------------------/12---10-------------------------------
Gb|-----------------------------------------12--11--12--11-12~~~~~~~------
Db|-12--------12--11-12---11--12------------------------------------------
Ab|-----------------------------------------------------------------------
Eb|-----------------------------------------------------------------------

B5                A5   D5/A            A5                                      

Eb|-----------------------------------------------------------------------
Bb|-10---------------------------10--------------10-----------------------
Gb|---12-11-12-11---9--------------------------------12---11--12--------
Db|--------------12------11--12----------11--12-------------------12------
Ab|-----------------------------------------------------------------------
Eb|-----------------------------------------------------------------------

End on G5

************************************************************

Notes:

I took a previous tab for this song at different tuning and tabbed it where you can 
play it on a single guitar. The sound is pretty much the same except you lose the tone
you get from having the two notes of Db and Ab on strings 1 and 2 which you have to omit
(unless you can reach really far!) if you want to play the chorus on the same guitar. 
If you have any comments or if you figure out a better way to play both the chorus and
 verse at the same time then please email me. Thanks to Trevor Jones who tabbed this 
off of GuitarOne, which I couldn't have done this without. This sounds best on an acoustic,
but you could use it for an electric too. 

Tyler H.

Email me at:
JBMT1611@aol.com
Comments