Course Of Nature - Caught In The Sun Chords & Tabs

 

Caught In The Sun Chords & Tabs

Course Of Nature Chords & Tabs

Version: 2 Type: Tab 0 ratings
1 star 2 stars 3 stars 4 stars 5 stars
comments

Caught In The Sun Tab

   
"Caught In The Sun"
By Course of Nature
Standard Tuning (e, B, G, D, A, e)
/ = slidex = scratch
~ = hold note

*************100% correct**************
Tabbed out by Rory Dobis-aol s/n BillabongNJ email- BillabongNJ@aol.com


***VERSE***
e-----------------------------------------------------------
B-----------------------------------------------------------
G-----------------------------------------------------------
D--8-8---6-6---4-4-4-4--------------------------------------
A--8-8---6-6---4-4-4-4--------------------------------------
E--6-6---4-4---2-2-2-2--------------------------------------

***CHORUS***
e-----------------------------------------------------------
B-----------------------------------------------------------
G--6-6------------------------------------------------------
D--6-6--6-6--4-4---8-8-8-8-x---6-6-6-6-x-6-6-x--------------
A--4-4--6-6--4-4---8-8-8-8-x---6-6-6-6-x-6-6-x--------------
E-------4-4--2-2---6-6-6-6-x---4-4-4-4-x-4-4-x--------------

***BRIDGE***
e-----------------------------------------------------------
B-----------------------------------------------------------
G-----------------------------------------------------------
D--7-7-7-7---9-9-9-9---9/11-11-11---9/11-11-11--------------
A--7-7-7-7---9-9-9-9---9/11-11-11---9/11-11-11--------------
E--5-5-5-5---7-7-7-7---7/-9--9--9---7/-9--9--9--------------
[ Tab from: http://www.guitartabs.cc/tabs/c/course_of_nature/caught_in_the_sun_tab_ver_2.html ]
***GUITAR SOLO***
e----------16-----------------------------------------------
B--13--14------14--13--14-----13--14--16--14--13--14--------
G-----------------------------------------------------13~---
D-----------------------------------------------------------
A-----------------------------------------------------------
E-----------------------------------------------------------

e--14--13--11------11---------------------------------------
B--------------14------14------14--16--14-------------------
G--------------------------11-------------------------------
D-----------------------------------------------------------
A-----------------------------------------------------------
E-----------------------------------------------------------

e----------18--16--13--14--13--14--13-----------------------
B--13--14---------------------------------------------------
G-----------------------------------------------------------
D-----------------------------------------------------------
A-----------------------------------------------------------
E-----------------------------------------------------------

e------16--14--13--14--13--14-------------------------------
B--14-------------------------------------------------------
G------------------------------13~--------------------------
D-----------------------------------------------------------
A-----------------------------------------------------------
E-----------------------------------------------------------

***POST-BRIDGE***
e-----------------------------------------------------------
B-----------------------------------------------------------
G--3-3-3---5-5-5---6-6-6---8-8-8---6-5-6--------------------
D--3-3-3---5-5-5---6-6-6---8-8-8---6-5-6--------------------
A--1-1-1---3-3-3---4-4-4---6-6-6---4-3-4--------------------
E-----------------------------------------------------------

Song Structure :
Verse
Chorus
Verse
Chorus
Bridge
Guitar Solo
Post-Bridge
Chorus
Comments