Counting Down The Days - Untitled 2 Chords & Tabs

 

Untitled 2 Chords & Tabs

Counting Down The Days Chords & Tabs

Version: 1 Type: Tab 0 ratings
1 star 2 stars 3 stars 4 stars 5 stars
comments

Untitled 2 Tab

“Untitled 2”
Counting Down The Days
Standard Tunning...EADGBe
Guitar 1 (Acoustic)
Tabbed By: Erich Krauss


Intro 
e----0---|----0---|----0---|----3---|-----------------------
B--3--3--|--3--3--|--3--3--|--3--3--|-----------------------
G---2--2-|---0--0-|---2--2-|---0--0-|-----------------------
D-0------|--------|-2------|-0------|-----------------------x3
A--------|-3------|--------|--------|-----------------------
E--------|--------|--------|--------|-----------------------

Verse 
e-0-|-0-|-0-|-3-|-------------------------------------------
B-3-|-3-|-3-|-3-|-------------------------------------------
G-2-|-0-|-2-|-0-|-------------------------------------------
D-0-|-0-|-2-|-0-|-------------------------------------------x4
A-0-|-3-|---|---|-------------------------------------------
E-X-|-0-|---|---|-------------------------------------------

Intro 
e----0---|----0---|----0---|----3---|-----------------------
B--3--3--|--3--3--|--3--3--|--3--3--|-----------------------
G---2--2-|---0--0-|---2--2-|---0--0-|-----------------------
D-0------|--------|-2------|-0------|-----------------------x2
A--------|-3------|--------|--------|-----------------------
E--------|--------|--------|--------|-----------------------
 
Verse 
e-0-|-0-|-0-|-3-|-------------------------------------------
B-3-|-3-|-3-|-3-|-------------------------------------------
G-2-|-0-|-2-|-0-|-------------------------------------------
D-0-|-0-|-2-|-0-|-------------------------------------------x2
A-0-|-3-|---|---|-------------------------------------------
E-X-|-0-|---|---|-------------------------------------------

Chorus 
e-0-|-2-|-0-|-3-|-0-|---------------------------------------
B-0-|-3-|-2-|-3-|-2-|---------------------------------------
G-1-|-2-|-2-|-2-|-2-|---------------------------------------
D-2-|-0-|-2-|-0-|-2-|---------------------------------------x3
A-2-|-0-|-0-|-0-|-0-|---------------------------------------
E-0-|-X-|-X-|-X-|-X-|---------------------------------------
[ Tab from: http://www.guitartabs.cc/tabs/c/counting_down_the_days/untitled_2_tab.html ]
Intro 
e----0---|----0---|----0---|----3---|-----------------------
B--3--3--|--3--3--|--3--3--|--3--3--|-----------------------
G---2--2-|---0--0-|---2--2-|---0--0-|-----------------------
D-0------|--------|-2------|-0------|-----------------------x2
A--------|-3------|--------|--------|-----------------------
E--------|--------|--------|--------|-----------------------



Verse 
e-0-|-0-|-0-|-3-|-------------------------------------------
B-3-|-3-|-3-|-3-|-------------------------------------------
G-2-|-0-|-2-|-0-|-------------------------------------------
D-0-|-0-|-2-|-0-|-------------------------------------------x2
A-0-|-3-|---|---|-------------------------------------------
E-X-|-0-|---|---|-------------------------------------------

Chorus 
e-0-|-2-|-0-|-3-|-0-|---------------------------------------
B-0-|-3-|-2-|-3-|-2-|---------------------------------------
G-1-|-2-|-2-|-2-|-2-|---------------------------------------
D-2-|-0-|-2-|-0-|-2-|---------------------------------------x3
A-2-|-0-|-0-|-0-|-0-|---------------------------------------
E-0-|-X-|-X-|-X-|-X-|---------------------------------------

Bridge 
e-3-|-0-|-0-|-0-|-0-0-0-|-----------------------------------
B-3-|-3-|-3-|-3-|-3-3-3-|-----------------------------------
G-0-|-2-|-0-|-0-|-0-0-0-|-----------------------------------
D-0-|-0-|-2-|-2-|-2h3p2-|-----------------------------------x4
A-2-|-0-|-2-|-3-|-3-0-0-|-----------------------------------
E-3-|-X-|-0-|-0-|-0-0-0-|-----------------------------------

Intro 
e----0---|----0---|----0---|----3---|-----------------------
B--3--3--|--3--3--|--3--3--|--3--3--|-----------------------
G---2--2-|---0--0-|---2--2-|---0--0-|-----------------------
D-0------|--------|-2------|-0------|-----------------------x2
A--------|-3------|--------|--------|-----------------------
E--------|--------|--------|--------|-----------------------

Verse 
e-0-|-0-|-0-|-3-|-------------------------------------------
B-3-|-3-|-3-|-3-|-------------------------------------------
G-2-|-0-|-2-|-0-|-------------------------------------------
D-0-|-0-|-2-|-0-|-------------------------------------------x2
A-0-|-3-|---|---|-------------------------------------------
E-X-|-0-|---|---|-------------------------------------------

Chorus 
e-0-|-2-|-0-|-3-|-0-|---------------------------------------
B-0-|-3-|-2-|-3-|-2-|---------------------------------------
G-1-|-2-|-2-|-2-|-2-|---------------------------------------
D-2-|-0-|-2-|-0-|-2-|---------------------------------------x3
A-2-|-0-|-0-|-0-|-0-|---------------------------------------
E-0-|-X-|-X-|-X-|-X-|---------------------------------------
Comments