Counting Crows - Sullivan Street Chords & Tabs

 

Sullivan Street Chords & Tabs

Counting Crows Chords & Tabs

Version: 1 Type: Bass Tab 0 ratings
1 star 2 stars 3 stars 4 stars 5 stars
comments

Sullivan Street Bass Tab

"Sullivan Street" By the Counting Crows
From "August and Everything After"
Tabbed by Snap(new e-mail address)

Vs riff (Follows the piano)
G--------------------------------------
D--------------------------------------
A--5------------------5----------------
E----5--3--3--3--3--5------------------
[ Tab from: http://www.guitartabs.cc/tabs/c/counting_crows/sullivan_street_btab.html ]
Chorus riff
G------------------------------------------------------
D------------------------------------------------------
A------------------------------------------------------
E--3--3--3--3--5--5--5--5--0--0--0--0--3--3--3--3------

Bridge(x4)
G------------------
D------------------
A-------5----------
E--3--5---3--------


Thats it, pretty easy, i bet u thought i only palyed guitar Didn't you? 
Oh well remember i have a new e-mail address so drop me a line and tell 
me what u think or something like that.
Comments