Counting Crows - Recovering The Satellites Chords & Tabs

 

Recovering The Satellites Chords & Tabs

Counting Crows Chords & Tabs

Version: 1 Type: Tab 0 ratings
1 star 2 stars 3 stars 4 stars 5 stars
comments

Recovering The Satellites Tab

   
Tabbed by Simon Doyle, any comments e-mail 'randomorwhat@hotmail.com'.

Got most of their tabs if anyone needs any more.

All guitars are tuned down 1/2 step (Eb Ab Db Gb Bb Eb)
Intro: guitar 1, slight distortion
   A                          G        D
|--------------------------|--------------------------|
|-----2--x-----------------|-----3-----3-----3--3-----|
|-----2--x--2-----0--------|--0--0--x--2--2--2--2--2--|
|--2--2--x--2--2--2--2-----|--0--0--x--4--4--4--4--4--|
|--0--0-----0--0--0--0--0--|--------------------------|
|--------------------------|--------------------------|
                                                                      

   A                          D                                                                      
|--------------------------|--------------|
|-----2--x-----------------|--3--------3--|
|-----2--x--2-----0--------|--2--------2--|
|--2--2--x--2--2--2--2-----|--4--------4--|
|--0--0-----0--0--0--0--0--|--------------|
|--------------------------|--------------|

Verse: guitar 1 plays the A D progression with the same
rhythmic feel as in the intro (without the G)

A                 D
Gonna get back to basics ...
                        * From this point on, throughout the verses, gtr. 2 plays this
over the A D progression:
|--------------|-----------|
|--------2-----|-----3-----|
|-----2-----2--|--------2--|
|--------------|--0--------|
|--0-----------|-----------|
|--------------|-----------|


Guitar 1 plays A D twice more, while guitar 2 plays this:
|--9------9------9h10h12--|--9------9------9h10h12--|
|-----10-----10-----------|-----10-----10-----------|
|-------------------------|-------------------------| Fill 2
|-------------------------|-------------------------|
|-------------------------|-------------------------|
|-------------------------|-------------------------|
                                                                      

                                                                      
|--9------9------9h10h12--|--10h12--12--12--12--12--12p10p9--|
|-----10-----10-----------|----------------------------------|
|-------------------------|----------------------------------|
|-------------------------|----------------------------------|
|-------------------------|----------------------------------|
|-------------------------|----------------------------------|

Chorus

Fill 3, played by gtr 2, while gtr. 1 plays A D
|--10h12--10--9----------|---------------------------|
|----------------12--10--|---------------------------|
|------------------------|--12--11--9--7--7h9/11--9--| 
|------------------------|---------------------------|
|------------------------|---------------------------|
|------------------------|---------------------------|

    NH
|-----NH--|
|---------|
|------------| Guitar 2, just before second verse
|------------|
|------------|
|------------|


Your mother recognizes all your desperate displays
and she watches as her babies drift violently away

*  (guitar 2 adds the part below, and then the second half of fill 2)

Guitar 2 adds this over the verse
|-------------------|-----10------|----------------|-------10------|
|-----10-----10-----|---------10--|--10-----10h12--|-----------10--|
|--9------9------9--|--7----------|------9---------|--7h9----------|
|-------------------|-------------|----------------|---------------|
|-------------------|-------------|----------------|---------------|
|-------------------|-------------|----------------|---------------|



[ Tab from: http://www.guitartabs.cc/tabs/c/counting_crows/recovering_the_satellites_tab.html ]
Outro:
Guitar 1 repeats A D, Guitar 2 plays this:
|--10h12--10--9----------|-------------7/9--9--9h10--|
|----------------12--10--|--10/12--12----------------|
|------------------------|---------------------------|
|------------------------|---------------------------|
|------------------------|---------------------------|
|------------------------|---------------------------|
                                                                      

                                                                      
|--10h12--10--9----------|----------------------|--9--9h10--10p9--|
|----------------12--10--|--7b(9)--7--5--3h5/7--|-----------------|
|------------------------|----------------------|-----------------|
|------------------------|----------------------|-----------------|
|------------------------|----------------------|-----------------|
|------------------------|----------------------|-----------------|
                                                                      

                                                                      
|----------------------------|--9------9------9h10--|
|----------------------------|-----10-----10--------|
|--6--7--7h9--4--4b(6)r4--2--|----------------------|
|----------------------------|----------------------|
|----------------------------|----------------------|
|----------------------------|----------------------|
                                                                      

                                                                      
|--10p9--9--9h10--10--10p9-----|--------------------------|
|---------------------------9--|--------------------------|
|------------------------------|--------------------------|
|------------------------------|---------6b(7)--(7)r6-----|
|------------------------------|-----------------------7--|
|------------------------------|--4b(5)-------------------|
                                                                      

                                                                      
|--9--10--10h12--12--10--12b(14)r12--|--12--12--12p10\9--|
|------------------------------------|-------------------|
|------------------------------------|-------------------|
|------------------------------------|-------------------|
|------------------------------------|-------------------|
|------------------------------------|-------------------|
                                                                      

                                                                      
|--9h10--10--10h12--12--10h12--12b(14)r12--|
|------------------------------------------|
|------------------------------------------|
|------------------------------------------|
|------------------------------------------|
|------------------------------------------|
                                                                      

                                                                      
|--12--12--12h14--14~~~--12h14--14~~~--14~~~p12--|
|------------------------------------------------|
|------------------------------------------------|
|------------------------------------------------|
|------------------------------------------------|
|------------------------------------------------|
                                                                      

                                                                      
|---------19------17------14--|
|--19/20------19------15------|
|-----------------------------|
|-----------------------------|
|-----------------------------|
|-----------------------------|
                                                                      

                                                                      
|--14h17--17p15p14--14h17--17p15p14--15h17--17--|
|-----------------------------------------------|
|-----------------------------------------------|
|-----------------------------------------------|
|-----------------------------------------------|
|-----------------------------------------------|
                                                                      

                                                                      
|--17b(19)--17--17\-------|--21--19--17--17--17h19/21--15--|
|-------------------------|--------------------------------|
|-------------------------|--------------------------------|
|-------------------------|--------------------------------|
|-------------------------|--------------------------------|
|------------------4b(5)--|--------------------------------|

Great Song!
Comments