Counting Crows - Murder Of One Chords & Tabs

 

Murder Of One Chords & Tabs

Counting Crows Chords & Tabs

Version: 1 Type: Bass Tab 0 ratings
1 star 2 stars 3 stars 4 stars 5 stars
comments

Murder Of One Bass Tab

Band: Counting Crows
Album: August and Everything After
Song: Murder of One

Tabbed by: Vinodhan(elvinonino15@hotmail.com)
Instrument Used: 4 string bass, standard tuning

Intro/Chorus
G|----------------------------------|
D|----------------------------------|
A|---------22222222--------22222222-|
E|-22222222--------22222222---------|

Verse
G|---------------------|
D|---------------------|
A|-4-4--4-4--2-2--2-2--| X 4
E|-----4----4---2----2-|

Chorus

Verse

Chorus

G|--------------------------------|
D|--------------------------------|
A|-5--4--3-2----------------------|
E|-----------5--4--3-2-2--4--6--7-|
[ Tab from: http://www.guitartabs.cc/tabs/c/counting_crows/murder_of_one_btab.html ]
G|--------------------------------------|
D|-------------------44-----------------|
A|-4-4--4-4---2-2--2---4-4--4-4--2-2--2-|
E|-----4----43----2--------4----4----2--|

Chorus

G|-----------|
D|---------4-|
A|--2----2---|
E|-2----2----|

G|-----------|
D|----4------|
A|--2----2---|
E|-2----2----|

Chorus

Outro
G|-----------------------------------------|
D|-----------------------------------------|
A|----------2222-44-22---------2222-55-22--|
E|-2222-4444----------2222-4444----------2-|


*The notes should be correct they sound almost exact as the song itself. The timing for the
tabs may be off.This is my first attempt at bass tabbing. Slight variations in the verse and 
other parts have not been tabbed in.Send corrections to elvinonino15@hotmail.com.


Comments