Counting Crows - Mr Jones Chords & Tabs

 

Mr Jones Chords & Tabs

Counting Crows Chords & Tabs

Version: 1 Type: Tab 0 ratings
1 star 2 stars 3 stars 4 stars 5 stars
comments

Mr Jones Tab

This is my first tab and Im  only 12 years old but Im pretty sure
i got it all right the song sounds better if you accent on the first
beat of the chord changes

tabbed by Kevin Kozel 
start fig 1
|--0--0--000--0--11--1--1--1---11--1--1---33--3--3--3---------|  
|--1--1--111--1--11--1--1--1---33--3--3---00--0--0--0---------|
|--2--2--222--2--22--2--2--2---22--2--2---00--0--0--0---------|
|--2--2--222--2--33--3--3--3---00--0--0---00--0--0--0---------|
|--0--0--000--0--11--1--1--1--------------22--2--2--2---------|
|----------------11--1--1--1--------------33--3--3--3---------|

|--0--0--000--0--11--1--1--1-----33-3333333---------|  
|--1--1--111--1--11--1--1--1-----00-0000000---------|   repeat fig 1 a lot of 
|--2--2--222--2--22--2--2--2-----00-0000000---------|   times until chorus
|--2--2--222--2--33--3--3--3-----00-0000000---------|
|--0--0--000--0--11--1--1--1-----22-2222222---------|
|----------------11--1--1--1-----33-3333333---------|
end fig 1
[ Tab from: http://www.guitartabs.cc/tabs/c/counting_crows/mr_jones_tab.html ]
 chorus
|--0-00--0---11--1-11---3333333333333---------------|
|--1-11--1---11--1-11---0000000000000---------------|
|--0-00--0---22--2-22---0000000000000---------------|
|--2-22--2---33--3-33---0000000000000---------------|
|--3-33--3---11--1-11---2222222222222---------------|
|--0-00--0---11--1-11---3333333333333---------------|

after chorus, repeat fig 1 a few times and go to chorus again,
so on back and forth

When I listened to Mr jones, I found that there is a short solo,
but i can't figure it out sorry
 
|--0--0--000--0--11--1--1--1---11--1--1---33--3--3--3---------|  
|--1--1--111--1--11--1--1--1---33--3--3---00--0--0--0---------|
|--2--2--222--2--22--2--2--2---22--2--2---00--0--0--0---------|
|--2--2--222--2--33--3--3--3---00--0--0---00--0--0--0---------|
|--0--0--000--0--11--1--1--1--------------22--2--2--2---------|
|----------------11--1--1--1--------------33--3--3--3---------|

After the second chorus, the song slows down, the chords remain the same,
just play them twice,  like  Am; twice in quarter notes, then F, then Dm,
then G, then repeat twice and go back to the chorus
Comments