Counting Crows - Mr Jones Chords & Tabs

 

Mr Jones Chords & Tabs

Counting Crows Chords & Tabs

Version: 2 Type: Bass Tab 0 ratings
1 star 2 stars 3 stars 4 stars 5 stars
comments

Mr Jones Bass Tab

COUNTING CROWS - "Mr. Jones" - Bass Tab

Common Time(4/4)
Standard Tuning(EADG)


VERSE 1:
       (x22)
|-----------|-----------------|-----------------|
|*---------*|-----------------|-----------------|
|*-r-e-s-t-*|-----------------|-----------------|
|-----------|-r-3-3-3-3-3-3-3-|-3-3-3-3-3-3-3-3-|
   1 2 3 4    1 & 2 & 3 & 4 &   1 & 2 & 3 & 4 &

|----------------|---------------|---------------|---------------|
|*---------------|---------------|---------------|-------5-------|
|*---------------|-------------3-|-5---5-5-------|---------------|
|--r-5-5---3---1-|-1---0-3-1-----|---------5---5-|-3---3---3-3-3-|
   1 2 & 3 & 4 &   1 2 & 3 & 4 &   1 2 & 3 & 4 &   1 2 & 3 & 4 &

                                                         (x2)
|---------------|-------------|-------------|----------------|
|---------------|-------------|-------------|-------5-5-----*|
|---------------|-------------|-------------|---------------*|
|-r-5-5---3---1-|-1---1-1---1-|-3---3-3---3-|-3---3-----3-3--|
  1 2 & 3 & 4 &   1 2 & 3 4 &   1 2 & 3 4 &   1 2 & 3 & 4 &

|---------------|---------------|---------------|---------------|
|---------------|---------------|---------------|-------5-5-----|
|---------------|---------3-/-7-|-5---5-5-------|---------------|
|-r-5-5---3---1-|-1-------------|---------5---5-|-3---3-----3-3-|
  1 2 & 3 & 4 &   1 2 & 3 & 4 &   1 2 & 3 & 4 &   1 2 & 3 & 4 &

|---------------|-------------|-------------|-------------|
|---------------|-------------|-------------|-------------|
|---------------|-------------|-------------|-----------3-|
|-r-5-5---3---1-|-1---1-1---1-|-3---3-3---3-|-3---3-3-----|
  1 2 & 3 & 4 &   1 2 & 3 4 &   1 2 & 3 4 &   1 2 & 3 4 &


CHORUS:
                                                          (x4)
|----------------|---------------|-------------|--------------|
|*---------------|---------------|-------------|-------------*|
|*-3---3-3-3---3-|---------------|-------------|-----------3-*|
|----------------|-1---1-1-0---1-|-3---3-3---3-|-3-r-3-3-3----|
   1 2 & 3 & 4 &   1 2 & 3 & 4 &   1 2 & 3 4 &   1 2 & 3 4 &


VERSE 2:
|---------------|---------------|------------------|-------------|
|---------------|---------------|------------------|-------5-5---|
|---------------|---------3-/-7-|------------------|-------------|
|-r-5-5---3---1-|-1-------------|-10---10-10/5---5-|-3---3-----3-|
  1 2 & 3 & 4 &   1 2 & 3 & 4 &   1  2 &  3  & 4 &   1 2 & 3 & 4 

|---------------|-------------|-------------|---------------|
|---------------|-------------|-------------|-------5-5-----|
|---------------|-------------|-------------|---------------|
|-r-5-5---3---1-|-1---1-1---1-|-3---3-3---3-|-3---3-----3-3-|
  1 2 & 3 & 4 &   1 2 & 3 4 &   1 2 & 3 4 &   1 2 & 3 & 4 &
[ Tab from: http://www.guitartabs.cc/tabs/c/counting_crows/mr_jones_btab_ver_2.html ]
|---------------|---------------|---------------|---------------|
|---------------|---------------|---------------|-------5-5-----|
|---------------|-------------3-|-5---5-5-------|---------------|
|-r-5-5---3---1-|-1---1---0-----|---------5---5-|-3---3-----3-3-|
  1 2 & 3 & 4 &   1 2 & 3 & 4 &   1 2 & 3 & 4 &   1 2 & 3 & 4 &

|---------------|-------------|-------------|-------------|
|---------------|-------------|-------------|-------------|
|---------------|-------------|-------------|-----------3-|
|-r-5-5---3---1-|-1---1-1-0-1-|-3-3-3-3-3-3-|-3-3-3-3-3---|
  1 2 & 3 & 4 &   1 2 & 3 4 &   1 2 & 3 4 &   1 2 & 3 4 &


INTERLUDE:
|---------|---------|---------|---------|---------|---------|
|---------|---------|---------|---------|---------|---------|
|-0-------|---------|---------|---------|-0-------|---------|
|---------|---------|-1-------|---------|---------|---------|
  1 2 3 4   1 2 3 4   1 2 3 4   1 2 3 4   1 2 3 4   1 2 3 4

|------------|-----------|-----------|---------|---------|---------|
|------------|-----------|-----------|---------|---------|---------|
|----------8/|/10--------|-----------|---------|---------|---3-/-/-|
|-3-----10---|----10-r-r-|-3/5-5-----|---------|-1-1-----|---------|
  1 2 3 4  &   1  2  3 4   1 & 2 3 4   1 2 3 4   1 2 3 4   1 2 3 4

|---------|---------|---------|-------------|---------|-----------|
|---------|---------|-5-5-----|-------------|---------|-----------|
|-0-0-----|---------|---------|-----3/10----|-0-0-----|-----------|
|---------|---------|---------|----------10-|---------|---5-8-/-1-|
  1 2 3 4   1 2 3 4   1 2 3 4   1 2 & 3  4    1 2 3 4   1 & 2 3 4

|---------|---------|---------|---------|-----------------|
|---------|---------|---------|---------|-----------------|
|---------|---------|-0-0-0---|-0-0-----|-----------------|
|-1-1-----|---------|---------|---------|-3-3-3-3-3-3-3-3-|
  1 2 3 4   1 2 3 4   1 2 3 4   1 2 3 4   1 & 2 & 3 & 4 &

|-----------------|
|-----------------|
|-----------------|
|-3-3-3-3-3-3-3-3-|
  1 & 2 & 3 & 4 &


END:
                                                         (x8)
|----------------|---------------|-------------|--------------|
|*---------------|---------------|-------------|-------------*|
|*-3---3-3-3---3-|---------------|-------------|-----------3-*|
|----------------|-1---1-1-0---1-|-3---3-3---3-|-3-r-3-3-3----|
   1 2 & 3 & 4 &   1 2 & 3 & 4 &   1 2 & 3 4 &   1 2 & 3 4 &
                                                         
|---------------|---------------|---------|---------|
|---------------|---------------|---------|---------|
|-3---3---3---3-|---------------|---------|---------|
|-------3---3---|-1---1-1-0---1-|-3-------|---------|
  1 2 & 3 & 4 &   1 2 & 3 & 4 &   1 2 3 4   1 2 3 4  

By: Johari Taylor
E-mail: viking@powerup.com.au, or s369700@student.uq.edu.au
More Bass Tabs: http://www.powerup.com.au/~viking/basstab.htm
Comments