Counting Crows - Hangin Round Chords & Tabs

 

Hangin Round Chords & Tabs

Counting Crows Chords & Tabs

Version: 1 Type: Tab 0 ratings
1 star 2 stars 3 stars 4 stars 5 stars
comments

Hangin Round Tab

          Author/Artist: Counting Crows
          Title: Hangin Aroung
          Transcribed by: Fiery
          Email: stratocaster18@hotmail.com

          Intro-2x

         
------------------------------------------------------------------------------
         
------------------------------------------------------------------------------
         
------------------------------------------------------------------------------
         
-------2-4p2-4-2-0-2-4-0--------2-4p2-4-4-2-4-2-4-4p2p0h2---------------------
         
-0-2/4--------------------0-2/4-----------------------------------------------
         
------------------------------------------------------------------------------            intro 
          g---3-4-4-4-4-5-3-3-3-3----- 
          f---3-4-4-4-5-5-3-3-3-4----- 
          a---4-4-3-3-3-3-5-5-5-4----- 
          d---3-3-4-4-3-3-4-4-4-4----- 
          e---3-4-4-4-4-5-3-3-3-3----- 
 
             play this 5 times 
 
          main riff 
          a--6-6-6-6-6-6-5-5-5-5-5---- 
          b--3-3-4-4-4-4-4-4-3-3-3---- 
          d--3-3-3-4-4-4-3-3-3-4-4---- 
          e--5-5-5-5-5-6-6-6-6-5-5---- 
          f--3-3-3-3-3-4-4-4-4-4-4---- 
 
 
          a--5-5-5-5-6-6-6-6-6-5-5-5----- 
          b--4-4-4-4-4-5-5-5-5-5-4-4----- 
          d--4-4-4-4-4-3-3-3-3-3-3-3----- 
          e--3-3-3-3-4-4-4-4-5-5-5-5----- 
          f--4-4-4-4-4-4-4-5-5-5-5-5----- 
 
            well thats it hope u enjoy

==========================================================

"Hangin around" By The Counting Crows
from "This Desert Life"
Tabbed By Snap

Slide:/
Hammer on:h
Pull off:p
intro (repeat x2)
[ Tab from: http://www.guitartabs.cc/tabs/c/counting_crows/hangin_round_tab.html ]
e----------------------------------------------------------
B----------------------------------------------------------
G----------------------------------------------------------
D-------------------0--------------------------------------
A-----3-5-7-5-3-2-3---3------3-5-7-5-5-3-5-7-5-3-5-3-0-----
E--1/-------------------0-1/---------------------------0-1-


*During the verses there really isn't any guitar parts,   there is some 
guitar stuff in the background but i dunno if thats really set in stone 
or if he's just screwing around with scales and so forth.

Chorus (rhythmn part)

e--1-----3------------
B--1--5--3------------
G--2--5--4------------
D--3--5--5------------
A--3--3--5------------
E--1-----3------------

Chorus (lead part)*these are chords that Dan Vickery,(the lead 
guitarist), picks the individual notes of

e--8---8---7h8p7----------------------
B--10--8---8--------------------------
G--10--9---0--------------------------
D--10--10-----------------------------
A-------------------------------------
E-------------------------------------


Guitar solo

e----------------------------------------------------------
B----------------------------------------------------------
G----------------------------------------------------------
D--------------------0----------------------------5--------
A----3---5h7-5-3-2-3--------3---5h7-5-5-3-5-5-5-7------3---
E-1/---3---------------0-1/---3---------------------1/---3-


-----------------------------------5-8---8-7-8-12---------
---------------------------5-8-8-8-----8------------------
-----------5-5-5---5---5-5--------------------------------
-------5h7-------7---7------------------------------------
-5h7-5----------------------------------------------------
----------------------------------------------------------

after that whole thing there is a verse and then everything drops out 
except for the guitars and they just play the chorus parts over again 
then they go into another chorus and then song ends after Adam says 
"way way way way too long." about 6 or 7 times or something like that 
and it finishes with piano and clapping and etc. but thats it thats the 
whole song at least i think so anyway.
Comments