Counting Crows - Hangin' Around Chords & Tabs

 

Hangin' Around Chords & Tabs

Counting Crows Chords & Tabs

Version: 4 Type: Tab 0 ratings
1 star 2 stars 3 stars 4 stars 5 stars
comments

Hangin' Around Tab

Song: Hangin Around
Artist: Counting Crows
Tabbed By: Toughlikepopeye@hotmail.com

The other hangin around tab is very close but I think this here main riff sounds a bit 
better if you use the notes I added/changed.
[ Tab from: http://www.guitartabs.cc/tabs/c/counting_crows/hangin_around_tab_ver_4.html ]
|---------------------------------------------------------------------
|---------------------------------------------------------------------
|---------------------------------------------------------------------
|---------------------------------------------------------------------
|-----0-3----5/7-5---3-2-3-5--------0-3----5/7-5---5-3-5-7-5\3--------
|-1--------3------------------0-1-1------3---------------------0------


|---------------------------------------------------------------------
|---------------------------------------------------------------------
|---------------------------------------------------------------------
|---------------------------------------------------------------------
|-----0-3----5/7-5---3-2-3-5--------0-3----5/7-5---5-3-5-7-5\3-3-5-7-5\3
|-1-1-----3------------------0--1-1-----3-----------------------------
Comments