Counting Crows - Hangin' Around Chords & Tabs

 

Hangin' Around Chords & Tabs

Counting Crows Chords & Tabs

Version: 3 Type: Tab 0 ratings
1 star 2 stars 3 stars 4 stars 5 stars
comments

Hangin' Around Tab

   
Song: "Hangin Around"
Artist: "Counting Crows"
Album: "The Dessert Life"
transcribed by dan cato(dcato330@hotmial.com)
http://come.to/modrockland/



Main Riff

|---------------------------------------------------------| 
|---------------------------------------------------------| 

|---------------------------------------------------------| 
|---------------------------------------------------------| 

|---0--3--5\7--5--3--2--3--2----0--3--5\7---3h5p3--3h5p3-3| 
|-1-----3---------------------1-----3---------------------| 




Secondary Riff
[ Tab from: http://www.guitartabs.cc/tabs/c/counting_crows/hangin_around_tab_ver_3.html ]
|-------7---7/8----7--------------------------------------|
|---/8----8-----8-----8-----------------------------------| 
|---------------------------------------------------------| 

|---------------------------------------------------------| 
|---------------------------------------------------------| 

|---------------------------------------------------------| 


The Chords 
go in the Pattern:
 F////C////G////G////
|1----3----3---------|
|1----5----3---------|
|2----5----4---------|
|3----5----5---------|
|3----3----5---------|
|1---------3---------|
note this part is acctually for the piano but works fine 
on guitar


Comments