Counting Crows - Colorblind Chords & Tabs

 

Colorblind Chords & Tabs

Counting Crows Chords & Tabs

Version: 7 Type: Tab 0 ratings
1 star 2 stars 3 stars 4 stars 5 stars
comments

Colorblind Tab

There are only non - capo versions to find so I decided to make a capo version of this
song. This way it sounds realy nice. enjoy it.

artist: counting crows
song: colorblind
album: "this desert life" / "cruel intentions" o.s.t.
Tuning: Standart.
Capo: on the 5th fret.

intro:
[ Tab from: http://www.guitartabs.cc/tabs/c/counting_crows/colorblind_tab_ver_7.html ]
E|---------------------------0--------------------------------|
B|-----------3-------------------------------1-------1--------|
G|-----0---0---0---0---0---0---0---0---0---0---0---0---0------|
D|--2----2-------2---2---2-------2---2---2-------2-------2----|
A|-------------------x---------------3-----------3------------|
E|--0----------------1----------------------------------------|
                                               get slower here.

Verse 1 and 2:

E|---------------------------0--------------------------------|
B|-----------3-------------------------------1-------1--------|
G|-----0---0---0---0---0---0---0---0---0---0---0---0---0------|
D|--2----2-------2---2---2-------2---2---2-------2-------2----|
A|-------------------x---------------3-----------3------------|
E|--0----------------1----------------------------------------|
                                            get slower here at verse 1
                     get slower here at verse 2, 3 and 4 


Outro:

E|------------|
B|---1--------|
G|-----0---0--| 
D|-------2----|
A|------------|
E|------------|
Comments