Counting Crows - Colorblind Chords & Tabs

 

Colorblind Chords & Tabs

Counting Crows Chords & Tabs

Version: 3 Type: Tab 0 ratings
1 star 2 stars 3 stars 4 stars 5 stars
comments

Colorblind Tab

This riff is played throughout pretty much the whole song.
Note:  This song is played on the piano, but this is how it should sound when played
on the guitar.
[ Tab from: http://www.guitartabs.cc/tabs/c/counting_crows/colorblind_tab_ver_3.html ]
---------2-----------------4--------
---0---0---0---0-----0---0---0---0--
-1---1-------1-----1---1-------1----
------------------------------------
-------------------0----------------
-4----------------------------------

---------0---------0-------0---------
---0---0---0---0-----1---1---1---1---
-1---1-------1---------0-------0-----
-------------------------------------
-------------------0-------0---------
-0-----------------------------------
Comments