Counting Crows - Anna Begins Chords & Tabs

 

Anna Begins Chords & Tabs

Counting Crows Chords & Tabs

Version: 2 Type: Tab 0 ratings
1 star 2 stars 3 stars 4 stars 5 stars
comments

Anna Begins Tab

   
-------------------------------------------------------------------------------
			     ANNA BEGINS – Counting Crows
-------------------------------------------------------------------------------

By: Chris Volkening


At the beginning there’s a really out of place 2 second guitar riff that really sucks.

The following is all the guitar plays during the verse but I like to play Am G in the 
rhythm of the drums.

e|----------------|
B|------1---------|
G|------2---------|
D|------2---------|
A|---0--0---------|
E|----------------|


Pre-Chorus
[ Tab from: http://www.guitartabs.cc/tabs/c/counting_crows/anna_begins_tab_ver_2.html ]
e|------0-----------0-----------2--------|
B|------0-----------1-----------3--------|
G|------0-----------0-----------2--------|
D|------2-----------2--------0--0--------|
A|------2--------3--3--------------------|
E|---0--0--------------------------------|


Chorus

e|------3--------3--------3--------2------|
B|---------3--------3--------3--------3---|
G|----------------------------------------|
D|---------------------2--------0---------|
A|------------3---------------------------|
E|---3------------------------------------|


Outro

Gmaj C E D Gmaj
Comments