Counting Crows - Accidentally In Love Chords & Tabs

 

Accidentally In Love Chords & Tabs

Counting Crows Chords & Tabs

Version: 2 Type: Tab 0 ratings
1 star 2 stars 3 stars 4 stars 5 stars
comments

Accidentally In Love Tab

Play this part twice......
E--7-5-5-3-3-5-|
B--------------|
G--------------|
D--------------|
A--------------|
E--------------|

this part once.......
E--7-5-5-3-3-3-5-7-5-3-3------|
B-----------------------------|
G-----------------------------|
D-----------------------------|
A-----------------------------|
E-----------------------------|
[ Tab from: http://www.guitartabs.cc/tabs/c/counting_crows/accidentally_in_love_tab_ver_2.html ]
this part twice.....
E--7-5-5-3-3-5---|
B----------------|
G----------------|
D----------------|
A----------------|
E----------------|

and this part once.
E--7-5-5-3-3-5-5-3-3-0-0------------|
B----------------------------3-0-3--|
G-----------------------------------|
D-----------------------------------|
A-----------------------------------|
E-----------------------------------|
Thats my version for an acoustic guitar, I dont know about electric guitars. You can 
try different strings butyou'll have to change the last part. Use it at the third part 
they say We're accidentally in love, listen to the CD for it.
Comments