Counting Crows - Accidentally In Love Chords & Tabs

 

Accidentally In Love Chords & Tabs

Counting Crows Chords & Tabs

Version: 1 Type: Bass Tab 0 ratings
1 star 2 stars 3 stars 4 stars 5 stars
comments

Accidentally In Love Bass Tab

   
Song: Accidentally in love
Artist: Counting Crows
Tabbed by: Timothy Morrison
E-mail: bass_bassist@hotmail.com 
Tuning: G, D, A, E
--------------------------------

Intro:
|-----------|-------|---------------------|-----------|---------|---------|---------|-------|
|---5-------|-------|---5---------2-5-2---|---5-------|-------2-|---2-2---|---------|-------|
|-----2-5-3-|-3---5-|-----2-5-5-/-------5-|-----2-5-3-|-2---5---|-2-----2-|-5---5-5-|-5-3...|
|-3---------|---3---|-3-------------------|-3---------|---3-----|---------|---5-----|-------|

Verse 1:
|---------|-------|---------|---------|---------|-------------|-----------------|
|---5-----|-------|---5-----|---------|-2---2-2-|-------------|-3-3-3-3-3-3-3-3-|
|-----3-2-|-3---3-|-----2-3-|-----2-3-|---2-----|-5---3-3---3-|-----------------|
|-3-------|---3---|-3-------|-3-3-----|---------|---0-----0---|-----------------|

|---------|-------|---------|---------|---------|-------------|---------|---------------|
|---5-----|-------|---5-----|---------|-2---2-2-|-------------|---------|-------2-5-2---|
|-----3-2-|-3---3-|-----2-3-|-----2-3-|---2-----|-5---3-3---3-|-5-5-5-5-|-3-5-/-------5-|
|-3-------|---3---|-3-------|-3-3-----|---------|---0-----0---|---------|---------------|

Chorus:
|-----|-----|-------------|-----|-----|-------------|
|-----|-----|-------------|-----|-----|-------------|
|-----|-----|-3-3-2-2-5-5-|-----|-----|-3-3-2-2-5-5-|
|-3-3-|-5-5-|-------------|-3-3-|-5-5-|-------------|

|-----|-----|---------|-----|---------------------|-----------|
|-----|-----|---------|-----|---------------------|-----------|
|-----|-----|-3-3-3-3-|-5-5-|---------2-----------|-----------|
|-3-3-|-5-5-|---------|-----|-0-0-3-5---5-0-5-7-5-|-3---3---3-|

Verse 2:
|---------|-------|---------|---------|---------|-------------|-----------------|
|---5-----|-------|---5-----|---------|-2---2-2-|-------------|-3-3-3-3-3-3-3-3-|
|-----3-2-|-3---3-|-----2-3-|-----2-3-|---2-----|-5---3-3---3-|-----------------|
|-3-------|---3---|-3-------|-3-3-----|---------|---0-----0---|-----------------|

|---------|-------|---------|---------|---------|-------------|------------|------------|
|---5-----|-------|---5-----|---------|-2---2-2-|-------------|------------|------------|
|-----3-2-|-3---3-|-----2-3-|-----2-3-|---2-----|-5---3-3---3-|-5--5--5--5-|-3--3--3--3-|
|-3-------|---3---|-3-------|-3-3-----|---------|---0-----0---|------------|------------|

Pre-chorus:
|---------|---------|-------|-------|
|-2-2-2-2-|---------|-------|-------|
|---------|-5-5-5-5-|-------|-------|
|---------|---------|-3---3-|-5---5-|
[ Tab from: http://www.guitartabs.cc/tabs/c/counting_crows/accidentally_in_love_btab.html ]
Chorus:
|-----|-----|-------------|-----|-----|-------------|
|-----|-----|-------------|-----|-----|-------------|
|-----|-----|-3-3-2-2-5-5-|-----|-----|-3-3-2-2-5-5-|
|-3-3-|-5-5-|-------------|-3-3-|-5-5-|-------------|

|-----|-----|---------|-----|-------|-------|
|-----|-----|---------|-----|-2-2-2-|-------|
|-----|-----|-3-3-3-3-|-5-5-|-------|-5-5-5-|
|-3-3-|-5-5-|---------|-----|-------|-------|

|-----|-----|-------------|-----|-----|-------------|
|-----|-----|-------------|-----|-----|-------------|
|-----|-----|-3-3-2-2-5-5-|-----|-----|-3-3-2-2-5-5-|
|-3-3-|-5-5-|-------------|-3-3-|-5-5-|-------------|

|-----|-----|---------|-----|---------------------------------------|
|-----|-----|---------|-----|-2-----2-5-----------------------------|
|-----|-----|-3-3-3-3-|-5-5-|---2-5---------------3-3-3-3-3-3-3-3-3-|
|-3-3-|-5-5-|---------|-----|-----------5---3-5-2-------------------|





Bridge:
|-------------|-------------|-------------|-------------|
|-5---5---5-5-|-------------|-2---2---2-2-|-------------|
|-------------|-3---3---3-3-|-------------|-5---5---5-5-|
|-------------|-------------|-------------|-------------|	2X

|-----------|---------|-----------------|---|
|---5-------|-2-2---2-|-2-2-2-2-2-2-2-2-|---|
|-----2-5-3-|-----5---|-----------------|-5-|
|-3---------|---------|-----------------|---|

|---------|-------|-------------|-------------------|-----2-------|
|---------|-------|-----2-2-2-2-|-2-2-2-2-2-2-2-2---|---5---5-----|
|-----2-5-|-----3-|-3-5---------|-----------------5-|-5-------5-\-|
|-3-5-----|-3-----|-------------|-------------------|-------------|

|-----------------|-----------------|-----------------|-----------------|
|-----------------|-----------------|-2-2-2-2-2-2-2-2-|-----------------|
|-----------------|-3-3-3-3-3-3-3-3-|-----------------|-5-5-5-5-5-2-----|
|-3-3-3-3-3-3-3-3-|-----------------|-----------------|-------------5-\-|

|-----------------|-----------------|-----------------|-----------------|
|-----------------|-----------------|-2-2-2-2-2-2-2-2-|-----------------|
|-----------------|-3-3-3-3-3-3-3-3-|-----------------|-5-5-5-5-5-5-5-5-|
|-3-3-3-3-3-3-3-3-|-----------------|-----------------|-----------------|

Chorus:
|-----|-----|-------------|-----|-----|-------------|
|-----|-----|-------------|-----|-----|-------------|
|-----|-----|-3-3-2-2-5-5-|-----|-----|-3-3-2-2-5-5-|
|-3-3-|-5-5-|-------------|-3-3-|-5-5-|-------------|

|-----|-----|---------|-----|-------|-------|---|
|-----|-----|---------|-----|-2-2-2-|-------|---|
|-----|-----|-3-3-3-3-|-5-5-|-------|-5-5-5-|---|
|-3-3-|-5-5-|---------|-----|-------|-------|-3-|

TmoŠ
Comments