Counting Crows - A Long December Chords & Tabs

 

A Long December Chords & Tabs

Counting Crows Chords & Tabs

Version: 1 Type: Tab 1 rating
1 star 2 stars 3 stars 4 stars 5 stars
comments

A Long December Tab

"A Long December" By The Counting Crows
From "Recovering The Satelites"
Tabbed By Snap

Verse Riff(rhythmn)

e-----1-----3-----1-----3-----1-----3--1-------------------
B--3--1--5--3--5--1--5--3--3--1--5--3--1--5----------------
G--3--2--5--3--5--2--5--3--3--2--5--3--2--5----------------
D--3--3--5--5--5--3--5--5--3--3--5--5--3--5----------------
A--1--3--3--5--3--3--3--5--1--3--3--5--3--3----------------
E-----1-----3-----1-----3-----1-----3--1-------------------

Verse Riff(lead):
*the lead part is the same as the rhythmn, except after the 7th chord 
he play's this:
2nd time adds this
e----------------  ----------------
B----------------  ----------------
G----------3-----  ---5/7/5--------
D----------3-----  ---0------------
A---3---5--------  ---3/5/3--------
E----------------  ----------------

Chorus riff(rhythmn)

e--1-----3---------
B--1--5--3--5------
G--2--5--3--5------
D--3--5--5--5------
A--3--3--5--3------
E--1-----3---------
[ Tab from: http://www.guitartabs.cc/tabs/c/counting_crows/a_long_december_tab.html ]
Chorus(Lead part)
(I wish u would....)
e-3--------5----- -------1-------1----
B---3------------ --------------------
G-----3--5------- --2--3----2--3------
D---------------- --------------------
A---------------- --------------------
E---------------- --------------------

Guitar solo

e-----------------------------------------------------------
B-----------------------------------------------------------
G-----------------------------------------------------------
D--5h7-7-5-7-7-7-5-7-5h7-7-5h7-7-5h7-8-8-8-8-7-5--5-7-7-5-7-
A------------------------------------------------8----------
E-----------------------------------------------------------


-----------------------------
-----------------------------
-----------------------------
-5-7-7-7-5-7-5---------------
---------------8-10-8--------
-----------------------------

After that there is a verse and the guitars drop out and there is just 
bass and piano and other stuff in there as well. but when they come 
back in Dan Vickery, the lead guitarist, does this:

e----------------------------------------
B----------------------------------------
G----------------------------------------
D-------3--------------------------------
A--3--5----------------------------------
E---------3--5--6------------------------

The rest of the song is the same as before its a cool song and its fun 
to play, at least i think so.
Comments