Countess - Trumpets Of Dawn Chords & Tabs

 

Trumpets Of Dawn Chords & Tabs

Countess Chords & Tabs

Version: 1 Type: Tab 0 ratings
1 star 2 stars 3 stars 4 stars 5 stars
comments

Trumpets Of Dawn Tab

   
TRUMPETS OF DAWN

As performed by COUNTESS on the album "Spawn Of Steel".
Words and music by Orlok.

Normal tuning.

x = palm mute

Fig. 1
E|---------------------------------------|
B|---------------------------------------|
G|---------------------------------------|
D|-7-----------------7--7-5-7---5--5-4-5-|
A|-7-----------------7--7-5-7---5--5-4-5-|
E|-5-----------------5--5-3-5---3--3-2-3-|

Fig. 2
E|---------------------------------------|
B|---------------------------------------|
G|---------------------------------------|
D|-------------------7--7-5-7---5--5-4-5-|
A|-------------------7--7-5-7---5--5-4-5-|
E|-5555555555555555--5--5-3-5---3--3-2-3-|

Fig. 3
E|---------------------------|
B|---------------------------|
G|---------------------------|
D|-10--10-7-10---12--12-9-12-|
A|-10--10-7-10---12--12-9-12-|
E|-8---8--5-8----10--10-7-10-|
[ Tab from: http://www.guitartabs.cc/tabs/c/countess/trumpets_of_dawn_tab.html ]
Fig. 4
E|----------------------------------------------------|
B|----------------------------------------------------|
G|----------------------------------------------------|
D|-10-------7-------5555444455557777-5---4---5---7----|
A|-10-------7-------5555444455557777-5---4---5---7----|
E|-8--------5-------3333222233335555-3---2---3---5----|

Fig. 5
E|----------------|
B|----------------|
G|----------------|
D|-7-7------------|
A|-7-7------------|
E|-5-5------------|

Fig. 6
E|----------------|
B|----------------|
G|----------------|
D|----------------|
A|----------------|
E|----------------|

Fig. 7
E|-------------------------------------|
B|-------------------------------------|
G|-------------------------------------|
D|-------------------------------------|
A|-------------------------------------|
E|-55555555-55555555-33333333-55555555-|
   xxxxxxxx xxxxxxxx xxxxxxxx xxxxxxxx

Fig. 8
E|-------------------------------------------------------------|
B|-------------------------------------------------------------|
G|-------------------------------------------------------------|
D|--7--7-5-7---5--5-4-5---10--10-7-10---12--12-9-12---7-7-5-7-|
A|--7--7-5-7---5--5-4-5---10--10-7-10---12--12-9-12---7-7-5-7-|
E|--5--5-3-5---3--3-2-3---8---8--5-8----10--10-7-10---5-5-3-5-|


SONG STRUCTURE

Fig 1 x 2
Fig 2 x 4		w/verse 1
Fig 3 x 1
Fig 4 x 1		w/chorus
Fig 2 x 4		w/verse 2
Fig 3 x 1
Fig 4 x 1		w/chorus
Fig 5 x 4
Fig 6 x 4
Fig 7 x 8		w/guitar lead
Fig 2 x 4		w/verse 3
Fig 3 x 1
Fig 4 x 1		w/chorus
Fig 8 x 1
Comments