Countess - Thus Spoke The Master Chords & Tabs

 

Thus Spoke The Master Chords & Tabs

Countess Chords & Tabs

Version: 1 Type: Tab 0 ratings
1 star 2 stars 3 stars 4 stars 5 stars
comments

Thus Spoke The Master Tab

   
THUS SPOKE THE MASTER

As performed by COUNTESS on the album "Ad Maiorem Sathanae Gloriam".
Words and music by Orlok.

Normal tuning.

x = palm mute
/ = slide

Fig. 1 (guitar 1; without distortion)
E|----------------------------------------|
B|----------------------------------------|
G|----------------------------------------|
D|-4------4--5------5--7------7--5------5-|
A|-4----4----5----5----7----7----5----5---|
E|-2--2------3--3------5--5------3--3-----|

Fig. 1 (guitar 2)
E|-----------------------------------------|
B|-----------------------------------------|
G|-----------------------------------------|
D|-4---------5---------7---------5---------|
A|-4---------3---------7---------5---------|
E|-2---------3---------5---------3---------|
     xxxxxxx   xxxxxxx   xxxxxxx   xxxxxxx
[ Tab from: http://www.guitartabs.cc/tabs/c/countess/thus_spoke_the_master_tab.html ]
Fig. 2
E|-----------------------------------------|
B|-----------------------------------------|
G|-----------------------------------------|
D|-4---------5---------7---------5---------|
A|-4---------3---------7---------5---------|
E|-2---------3---------5---------3---------|

Fig. 3
E|---------------------------------|
B|---------------------------------|
G|---------------------------------|
D|-4/5-5/4-4/5-5/7-7/5-5/4-4/7-7/4-|
A|-4/5-5/4-4/5-5/7-7/5-5/4-4/7-7/4-|
E|-2/3-3/2-2/3-3/5-5/3-3/2-2/5-5/2-|

Fig. 4
E|-------------------------------------|
B|-------------------------------------|
G|-------------------------------------|
D|-7/9-9/7-7/9-9/10-10/9-9/7-7/10-10/7-|
A|-7/9-9/7-7/9-9/10-10/9-9/7-7/10-10/7-|
E|-5/7-7/5-5/7-7/ 8--8/7-7/5-5/ 8--8/5-|

Fig. 5
E|-------|
B|-------|
G|-------|
D|-7--7--|
A|-7--7--|
E|-5--5--|


SONG STRUCTURE

Fig 1 x 4		guitar 1 only
Fig 1 x 2
Fig 2 x 2		w/verse 1
Fig 3 x 3		w/verse 2
Fig 4 x 3		w/verse 3
Fig 3 x 3		w/verse 4
Fig 4 x 3		w/verse 5
Fig 2 x 1
Fig 2 x 1		w/verse 6
Fig 3 x 3		w/verse 7
Fig 4 x 3		w/guitar lead
Fig 5 x 1
Comments