Countess - Thermopylae Chords & Tabs

 

Thermopylae Chords & Tabs

Countess Chords & Tabs

Version: 1 Type: Tab 0 ratings
1 star 2 stars 3 stars 4 stars 5 stars
comments

Thermopylae Tab

THERMOPYLAE

As performed by COUNTESS on the album "Spawn Of Steel".
Words and music by Orlok.

Normal tuning.

x = palm mute

Fig. 1
E|-----------------------------------|
B|-----------------------------------|
G|-----------------------------------|
D|-----6-3-5-3----------6-3-5--------|
A|-555---------6-5--555-------6-5-6--|
E|-----------------------------------|

Fig. 2
E|-------------------------------------|
B|-------------------------------------|
G|-5-55-77--5-55-88--5-55-22--44444444-|
D|-5-55-77--5-55-88--5-55-22--44444444-|
A|-3-33-55--3-33-66--3-33-00--22222222-|
E|-------------------------------------|

Fig. 3 (guitar 1)
E|-------------------------------------------|
B|-------------------------------------------|
G|-------------------------------------------|
D|---6-5-3-------5-3-5----6-5-3-------5-6-3--|
A|-3-------6-5-6--------3-------6-5-6--------|
E|-------------------------------------------|

E|-------------------------------------------|
B|-------------------------------------------|
G|-------------------------------------------|
D|---6-5-3-------5-6-5----6-5-3-------5-3----|
A|-3-------6-5-6--------3-------6-5-6-----3--|
E|-------------------------------------------|
[ Tab from: http://www.guitartabs.cc/tabs/c/countess/thermopylae_tab.html ]
Fig. 3 (guitar 2)
E|---------------------------------------------------------|
B|---13-9-11----------11-9-11----13-9-11----------11-13-9--|
G|-8---------12-10-12----------8---------12-10-12----------|
D|---------------------------------------------------------|
A|---------------------------------------------------------|
E|---------------------------------------------------------|

E|---------------------------------------------------------|
B|---13-9-11----------11-13-11----13-9-11----------11-9----|
G|-8---------12-10-12-----------8---------12-10-12------8--|
D|---------------------------------------------------------|
A|---------------------------------------------------------|
E|---------------------------------------------------------|

Fig. 4
E|-------------------------------------|
B|-------------------------------------|
G|-7-777-7-8-888-8-5-555-555-55-10-10--|
D|-7-777-7-8-888-8-5-555-555-55-10-10--|
A|-5-555-5-6-666-6-3-333-333-33--8--8--|
E|-------------------------------------|

Fig. 5
E|-----------------------|
B|-----------------------|
G|-7-------5---8--10-10--|
D|-7---3---5---8--10-10--|
A|-5---3---3---6---8--8--|
E|-----1-----------------|

Fig. 6 (guitar 1)
E|--------------------|
B|--------------------|
G|--------------------|
D|----5-3-------------|
A|-3------633333333--|
E|--------------------|
            xxxxxxxx

Fig. 6 (guitar 2)
E|--------------------|
B|----11-9------------|
G|-8-------12---------|
D|--------------------|
A|-------------------|
E|--------------------|

Fig. 7
E|-------|
B|-------|
G|-7--5--|
D|-7--5--|
A|-5--3--|
E|-------|


SONG STRUCTURE

Fig 1 x 2
Fig 2 x 4
Fig 3 x 1
Fig 4 x 2		w/verse 1
Fig 5 x 1		w/guitar lead
Fig 4 x 2		w/verse 2
Fig 3 x 1
Fig 6 x 4		w/chorus
Fig 2 x 4
Fig 4 x 2		w/verse 3
Fig 5 x 1		w/guitar lead
Fig 4 x 2		w/verse 4
Fig 3 x 1
Fig 6 x 4		w/chorus
Fig 2 x 4
Fig 4 x 2		w/verse 5
Fig 5 x 1		w/guitar lead
Fig 7
Comments