Countess - On The Wings Of Azazel Chords & Tabs

 

On The Wings Of Azazel Chords & Tabs

Countess Chords & Tabs

Version: 1 Type: Tab 0 ratings
1 star 2 stars 3 stars 4 stars 5 stars
comments

On The Wings Of Azazel Tab

ON THE WINGS OF AZAZEL (LIVE)

As performed by COUNTESS on the album "Hell's Rock & Roll".
Words and music by Orlok.

Normal tuning.

Fig. 1
E|---------------------------------|
B|---------------------------------|
G|---------------------------------|
D|---------------------------------|
A|----------5-5-3-----------3-3-5--|
E|-00000000-3-3-1--00000000-1-1-3--|

Fig. 2
E|---------|
B|---------|
G|---------|
D|-7---9---|
A|-7---9---|
E|-5---7---|

Fig. 3
E|-------------------|
B|-------------------|
G|-------------------|
D|-10---12---8---7---|
A|-10---12---8---7---|
E|--8---10---6---5---|
[ Tab from: http://www.guitartabs.cc/tabs/c/countess/on_the_wings_of_azazel_tab.html ]
Fig. 4
E|-----------|
B|-----------|
G|-----------|
D|-9-99-7-7--|
A|-9-99-7-7--|
E|-7-77-5-5--|

Fig. 5
E|-----------------------------|
B|-----------------------------|
G|-----------------------------|
D|-9--5--9-5-8---9--5--9-5-7---|
A|-9--5--9-5-8---9--5--9-5-7---|
E|-7--3--7-3-6---7--3--7-3-5---|

Fig. 6
E|----|
B|----|
G|----|
D|-9--|
A|-9--|
E|-7--|


SONG STRUCTURE

Fig 1 x 3 		w/verse 1
Fig 2 x 1
Fig 3 x 4		w/chorus
Fig 4 x 2
Fig 4 x 8		w/guitar lead
Fig 1 x 3		w/guitar lead
Fig 2 x 1
Fig 3 x 4		w/chorus
Fig 5 x 1
Fig 5 x 3
Fig 1 x 3		w/verse 2
Fig 2 x 1
Fig 3 x 4		w/chorus
Fig 6 x 1
Comments