Countess - Dokkum 754 Chords & Tabs

 

Dokkum 754 Chords & Tabs

Countess Chords & Tabs

Version: 1 Type: Tab 0 ratings
1 star 2 stars 3 stars 4 stars 5 stars
comments

Dokkum 754 Tab

   
DOKKUM 754 (LIVE)

As performed by COUNTESS on the album "Heilig Vuur".
Words and music by Orlok.

Normal tuning.

x = palm mute

Fig. 1 (guitar 1)
E|------------------------------------------------------------|
B|-----------------10-12-10---12-13-12-10------10-12-10-------|
G|-9-11-12-11---12--------------------------12----------12-11-|
D|------------------------------------------------------------|
A|------------------------------------------------------------|
E|------------------------------------------------------------|

Fig. 1 (guitar 2)
E|---------------------------------------------|
B|---------------------------------------------|
G|---------------------------------------------|
D|-2-2-2-2222-5-5-5-5555-9-9-9-9999-5-5-5-5555-|
A|-2-2-2-2222-5-5-5-5555-9-9-9-9999-5-5-5-5555-|
E|-0-0-0-0000-3-3-3-3333-7-7-7-7777-3-3-3-3333-|

Fig. 2
E|--------------------------|
B|--------------------------|
G|--------------------------|
D|-2--2--4-4-5--5--55555555-|
A|-2--2--4-4-5--5--55555555-|
E|-0--0--2-2-3--3--33333333-|
                   xxxxxxxx

Fig. 3
E|------|
B|------|
G|------|
D|-4----|
A|-4----|
E|-2----|
[ Tab from: http://www.guitartabs.cc/tabs/c/countess/dokkum_754_tab.html ]
Fig. 4
E|-----------------|
B|-----------------|
G|-----------------|
D|-2-2-2-2-2-2-2-2-|
A|-2-2-2-2-2-2-2-2-|
E|-0-0-0-0-0-0-0-0-|
   x x x x x x x x

Fig. 5
E|---------------------------------------------|
B|---------------------------------------------|
G|---------------------------------------------|
D|-2-2-2-2222-5-5-5-5555-9-9-9-9999-7-7-7-5544-|
A|-2-2-2-2222-5-5-5-5555-9-9-9-9999-7-7-7-5544-|
E|-0-0-0-0000-3-3-3-3333-7-7-7-7777-5-5-5-3322-|

Fig. 6
E|-----------------|
B|-----------------|
G|-----------------|
D|-2---------------|
A|-2---------------|
E|-0---------------|

Fig. 7
E|-------------------------------------------|
B|-------------------------------------------|
G|-------------------------------------------|
D|-2---4-5---7-9---7-5---4-2-4-5-7-9-7-5-4-2-|
A|-2---4-5---7-9---7-5---4-2-4-5-7-9-7-5-4-2-|
E|-0---2-3---5-7---5-3---2-0-2-3-5-7-5-3-2-0-|


SONG STRUCTURE

Fig 1 x 1		guitar 1 only (without distortion)
Fig 2 x 4
Fig 3 x 1
Fig 1 x 1
Fig 1 x 1		bass only
Fig 1 x 1
Fig 4 x 4		w/verse 1
Fig 5 x 1		w/verse 2
Fig 5 x 1		w/verse 3
Fig 1 x 1
Fig 5 x 1		w/verse 4
Fig 5 x 1		w/verse 5
Fig 6 x 1
Fig 4 x 4		w/verse 6
Fig 5 x 2		w/guitar lead
Fig 1 x 1
Fig 1 x 1		guitar 1 only
Fig 1 x 1
Fig 7 x 1
Comments