Countess - Bloed In De Sneeuw Chords & Tabs

 

Bloed In De Sneeuw Chords & Tabs

Countess Chords & Tabs

Version: 1 Type: Tab 0 ratings
1 star 2 stars 3 stars 4 stars 5 stars
comments

Bloed In De Sneeuw Tab

   
BLOED IN DE SNEEUW (LIVE)

As performed by COUNTESS on the album "Heilig Vuur".
Words by Orlok, music by Othalaz and Orlok.

Normal tuning.

Fig. 1 (without distortion)
E|-----------------------------------------------------------|
B|-----------------------------------------------------------|
G|-9-999-999-99-77-55-9-999-999-99-77-55-4-444-444-44-5-7-10-|
D|-9-999-999-99-77-55-9-999-999-99-77-55-4-444-444-44-5-7-10-|
A|-7-777-777-77-55-33-7-777-777-77-55-33-2-222-222-22-3-5--8-|
E|-----------------------------------------------------------|

Fig. 2
E|-----------------------------------------------------------|
B|-----------------------------------------------------------|
G|-9-999-999-99-77-55-9-999-999-99-77-55-4-444-444-44-5-7-10-|
D|-9-999-999-99-77-55-9-999-999-99-77-55-4-444-444-44-5-7-10-|
A|-7-777-777-77-55-33-7-777-777-77-55-33-2-222-222-22-3-5--8-|
E|-----------------------------------------------------------|

E|---------------------------------------|
B|---------------------------------------|
G|-9-999-999-99-77-55-9-999-999-99-77-55-|
D|-9-999-999-99-77-55-9-999-999-99-77-55-|
A|-7-777-777-77-55-33-7-777-777-77-55-33-|
E|---------------------------------------|

E|-------------------------------------|
B|-------------------------------------|
G|-2-222-222-22-4444-5-555-555-5-7-5-7-|
D|-2-222-222-22-4444-5-555-555-5-7-5-7-|
A|-0-000-000-00-2222-3-333-333-3-5-3-5-|
E|-------------------------------------|
[ Tab from: http://www.guitartabs.cc/tabs/c/countess/bloed_in_de_sneeuw_tab.html ]
Fig. 3
E|------------------------------------|
B|------------------------------------|
G|-9------7-12------10-5------7-------|
D|-9------7-12------10-5------7-------|
A|-7------5-10-------8-3------5-------|
E|------------------------------------|

Fig. 4
E|----------------|
B|----------------|
G|----------------|
D|----------------|
A|----------------|
E|----------------|

Fig. 5
E|----|
B|----|
G|-9--|
D|-9--|
A|-7--|
E|----|

Guitar lead
E|-----------------------------------------------|
B|-----------------------------10----------10----|
G|-9-10-12-10-9-10-12-10-10-12----12-10-12----12-|
D|-----------------------------------------------|
A|-----------------------------------------------|
E|-----------------------------------------------|

E|-------------------------------------------------|
B|----10-12-10----10-12-10-10-12-13-12-10-12-13-12-|
G|-12----------12----------------------------------|
D|-------------------------------------------------|
A|-------------------------------------------------|
E|-------------------------------------------------|

E|-------10----------10-------10-12-10----10-12-10-|
B|-12-13----13-12-13----13-13----------13----------|
G|-------------------------------------------------|
D|-------------------------------------------------|
A|-------------------------------------------------|
E|-------------------------------------------------|

E|-10-12-13-12-10-12-13-12-12-13-15-13-12-13-15---|
B|------------------------------------------------|
G|------------------------------------------------|
D|------------------------------------------------|
A|------------------------------------------------|
E|------------------------------------------------|


SONG STRUCTURE

Fig 1 x 1
Fig 2 x 1		w/verse 1
Fig 3 x 4		w/chorus
Fig 2 x 1		w/verse 2
Fig 3 x 4		w/chorus
Fig 3 x 2		w/guitar lead
Fig 4 x 1
Fig 2 x 1		w/verse 3 (without distortion)
Fig 1 x 1
Fig 2 x 1		w/verse 4
Fig 3 x 4		w/chorus
Fig 2 x 1		w/verse 5
Fig 3 x 4		w/chorus
Fig 5 x 1
Comments