Countess - Aleidis Chords & Tabs

 

Aleidis Chords & Tabs

Countess Chords & Tabs

Version: 1 Type: Tab 0 ratings
1 star 2 stars 3 stars 4 stars 5 stars
comments

Aleidis Tab

   
ALEIDIS

As performed by COUNTESS on the album "The Return Of The Horned One".
Words and music by Orlok.

Normal tuning.

x = palm mute

Fig. 1
E|----------------|
B|----------------|
G|-7777777788554--|
D|-7777777788554--|
A|-5555555566332--|
E|----------------|

Fig. 2
E|-----------------|
B|-----------------|
G|-5-5-5-5-8-8-7-7-|
D|-5-5-5-5-8-8-7-7-|
A|-3-3-3-3-6-6-5-5-|
E|-----------------|
[ Tab from: http://www.guitartabs.cc/tabs/c/countess/aleidis_tab.html ]
Fig. 3
E|----------------------------------|
B|----------------------------------|
G|-444444445-4-5-4-555555556-5-6-5--|
D|-444444445-4-5-4-555555556-5-6-5--|
A|-222222223-2-3-2-333333334-3-4-3--|
E|----------------------------------|
   xxxxxxxx        xxxxxxxx

Fig. 4
E|------|
B|------|
G|-7----|
D|-7----|
A|-5----|
E|------|

Fig. 5
E|---------------------|
B|---------------------|
G|-7----8----5----4----|
D|-7----8----5----4----|
A|-5----6----3----2----|
E|---------------------|


SONG STRUCTURE

Fig 1 x 8
Fig 2 x 4		w/verse 1
Fig 3 x 2
Fig 2 x 4 		w/verse 2
Fig 3 x 2
Fig 4 x 1
Fig 5 x 1		bass only
Fig 5 x 1		w/verse 3
Fig 3 x 2
Fig 2 x 6		w/verse 4
Fig 3 x 2
Fig 2 x 4		w/verse 5
Fig 1 x 8
Comments