Counterfit - Better Late Than Never Chords & Tabs

 

Better Late Than Never Chords & Tabs

Counterfit Chords & Tabs

Version: 2 Type: Bass Tab 0 ratings
1 star 2 stars 3 stars 4 stars 5 stars
comments

Better Late Than Never Bass Tab

Bass in Drop D

Intro
G---------------------------------------------------------------|
D-----------------------0-0--0----------------------------------|
A-1-1--1--1-1-1--1-1-1------------------------------------------|
D------------------------------3--3-3--3-3-3--------------------|

G---------------------------------------------------------------|
D-----------------------------------------0-0-------------------|
A-1-1-1--1--1-1-1--1-1-1-----------------------0-0--------------|
D------------------------3-3-3-3--3-3-3-3-----------------------|

(Play these as a set twice) above

Verse (Sit still and watch the lights)
G---------------------------------------------------------------|
D----------------------------------------0----------------------|
A-1---------1-1-------------------------------------------------|
D------------------------3--------------------------------------|

(This is played 4 times) above

Chorus (Those times that I opened up my mouth)
G---------------------------------------------------------------|
D---------------------------------------------------------------|
A---------------------------------------------------------------|
D-5-5-5-5--5-5-5-5--0-0-0-0--0-0-0-0---3-3----------------------|
[ Tab from: http://www.guitartabs.cc/tabs/c/counterfit/better_late_than_never_btab_ver_2.html ]
G---------------------------------------------------------------|
D---------------------------------------------------------------|
A---------------------------------------------------------------|
D-5-5-5-5--5-5-5-5--1-1-1-1--0-0-0-0----------------------------|

(Play these as a set twice) above

Back into verse

Build up, palm muted, except last note in each sequence (Don't act so interested)
G---------------------------------------------------------------|
D---------------------------------------------------------------|
A------------0-0-0-0-0--1-1-1-1-1--1-1-1-1-1--------------------|
D-5-5-5-5-5-----------------------------------------------------|

G---------------------------------------------------------------|
D---------------------------------------------------------------|
A------------0-0-0-0-0--1-1-1-1-1-1-1-1--1-1-1-1-1-1------------|
D-5-5-5-5-5-----------------------------------------------------|

Back into Chorus

Outro (And mayebe I'll call you)
G---------------------------------------------------------------|
D-------------------0-------------------------------------------|
A---------1-----------------------------------------------------|
D-5-------------------------3-----------------------------------|

G---------------------------------------------------------------|
D-------------0-0-----------------------------------------------|
A-------1-1-----------------------------------------------------|
D-5-5--------------3-3------------------------------------------|
Comments