Counterfit - Better Late Than Never Chords & Tabs

 

Better Late Than Never Chords & Tabs

Counterfit Chords & Tabs

Version: 1 Type: Bass Tab 0 ratings
1 star 2 stars 3 stars 4 stars 5 stars
comments

Better Late Than Never Bass Tab

   
Counterfit
"Better late than never"
If you want to go see this band go to www.Counterfit.net


i haven't seen anyone else tabs these guys so i will, i dunno if its all right oh well.

Tunning: EADG

intro
G-------------------------------------------------------------------------
D---3-33-3-3-33-333-------------------------------------------------------
A------------------5-5--5-5-55-5555-1-11-1-1-11-1111-3333333333-555555-777 x2
E-------------------------------------------------------------------------

verse
G--------------------------
D-3~----33~----------------
A-------------3~------5~--- x4
E--------------------------

Chorus
G-------------------------------------------------------------------------------
D-------------------------------------------------------------------------------
A---------------------5555-xxxx-5555-6666---------------------5555-xxxx-5555----
E-3333-xxxx-3333-xxxx---------------------3333-xxxx-3333-xxxx-------------------
[ Tab from: http://www.guitartabs.cc/tabs/c/counterfit/better_late_than_never_btab.html ]
G-------------------------------------------------------------------------------
D-------------------------------------------------------------------------------
A---------------------5555-xxxx-5555-3333---------------------5555-xxxx-5555----
E-3333-xxxx-3333-xxxx---------------------3333-xxxx-3333-xxxx-------------------


repeat verse twice then on the the third theres this little fill
G---------------------
D-3-3-3-3-3-----------
A-----------3~---5~---
E---------------------

This is right before the Chorus
G-----------------------------------
D-----------------------------------
A-----------------------------------
E-33333333-55555555-6666666666666666

(repeat chorus)

outro
G--------------------
D--------------------
A------1~--5~--3~--5~
E--3~----------------

G------------------------------
D------------------------------
A----------11~--11-55~-33-55---
E--33~--33---------------------

Now thats it! Counterfit is really good you should hear them. You know i
seriously believe i am the only one who tabed them, i dont know? Well if you
hear something wrong Email me at www.Ironmanhendrix@netscape.net or catch me on 
aim at Ironmanhendrix. COUNTERFIT!!
Comments