Count The Stars - Taking It All Back Chords & Tabs

 

Taking It All Back Chords & Tabs

Count The Stars Chords & Tabs

Version: 1 Type: Tab 0 ratings
1 star 2 stars 3 stars 4 stars 5 stars
comments

Taking It All Back Tab

Band:  Count The Stars
Song:  Taking It All Back
Album: Never Be Taken Alive ('2003)
Track: #5/13

In drop d tuning

intro
E-----------------------------------------------
B-----------------------------------------------
G---44-4----------------------------------------            
D---44-4---44-4---66-6---11-1---22-2---22-2---4-
A---22-2---44-4---66-6---11-1---22-2---22-2---4-
E----------44-4---66-6---11-1---22-2---22-2---4-

Guitar #2
E-----------------------------------------------------------------------------
B--------8-6-5-------8-6-5h6p5-------------8-6-5h6p5------6-5h6p5------6-5----
G---5-7---------5-7--------------7-5---5-7-----------7-5-----------7-5------5-
D-----------------------------------------------------------------------------
A-----------------------------------------------------------------------------
E-----------------------------------------------------------------------------
[ Tab from: http://www.guitartabs.cc/tabs/c/count_the_stars/taking_it_all_back_tab.html ]
verse
E------------------         --------------------------------------------
B------------------         --------------------------------------------
G---4444-4---------         ---44444444444444-----------------------
D---4444-4-2222-2--   then  ---44444444444444--22222222222222     
A---2222-2-2222-2--         ---22222222222222--22222222222222
E----------2222-2--        --------------------22222222222222
    ****   ****                **************  **************
         p.m.                                p.m.

chorus
E----------------------------------------------------
B----------------------------------------------------
G---44-4---------------------------------------------            
D---44-4---44-4---66-6---11-1---22-2---22-2---44-44--
A---22-2---44-4---66-6---11-1---22-2---22-2---44-44--
E----------44-4---66-6---11-1---22-2---22-2---44-44--


Pre-verse
E----------------------------------------------------------------------------
B----------------------------------------------------------------------------
G---4444-6666-4444-8888-4444-6666-4444-8888-4444-6666-4444-8888-666666-66-66-
D---xxxx-xxxx-xxxx-xxxx-xxxx-xxxx-xxxx-xxxx-xxxx-xxxx-xxxx-xxxx-xxxxxx-xx-xx-
A---2222-4444-2222-6666-2222-4444-2222-6666-2222-4444-2222-6666-444444-44-44-
E----------------------------------------------------------------------------
Comments