Costello Elvis - Pump It Up Chords & Tabs

 

Pump It Up Chords & Tabs

Costello Elvis Chords & Tabs

Version: 1 Type: Tab 0 ratings
1 star 2 stars 3 stars 4 stars 5 stars
comments

Pump It Up Tab

   
"Pump It Up"
Elvis Costello
A pretty old song - Transcribed by Brian S.

Intro :
[ Tab from: http://www.guitartabs.cc/tabs/c/costello_elvis/pump_it_up_tab.html ]
Bass does a couple of beats
than guitar does this
                                                  Bb  B   C   C#  
E----5b(6)~r5~~~-bass does other stuff-----------|----------------
B----6b(7)~r6~~~------------------------12~~~~---|----------------
G---------------------------------------12~~~~---|3-3-4-4-5-5-6-6-
D------------------------------------------------|3-3-4-4-5-5-6-6-
A------------------------------------------------|1-1-2-2-3-3-4-4-
E------------------------------------------------|----------------
   C#     C B
E----------------------------------------------------------
B----------------------------------------------------------
G--6-6--6-5-4-6-6--6-5-4--6-6---6-5-4-6-6--6-5-4-----------
D--6-6--6-5-4-6-6--6-5-4--6-6---6-5-4-6-6--6-5-4-----------
A--4-4~-4-3-2-4-4~-4-3-2--4-4~--4-3-2-4-4~-4-3-2-----------
E----------------------------------------------------------


Verse
   B7 
---2----------------------------------------------------------
---x----------------------------------------------------------
---2-
Comments