Corrupted Morals - Big Man Chords & Tabs

 

Big Man Chords & Tabs

Corrupted Morals Chords & Tabs

Version: 1 Type: Tab

Big Man Tab

   
This tab might not be completely correct, but it's basically here.
Email me a shunned_guitarist@hotmail.com if you have any corrections.
(listen for timing and exact number of times to play each note)
[ Tab from: http://www.guitartabs.cc/tabs/c/corrupted_morals/big_man_tab.html ]
intro/verse/fill: E D F D  
E|--------------------------------------------|
B|--------------------------------------------|
G|-9----7---10----9--9----7---10-10-10-10---9-|
D|-9----7---10----9--9----7---10-10-10-10---9-|
A|-7----5----8----7--7----5----8--8--8--8---7-|
E|--------------------------------------------|

bridge: E F E E F D
E|-----------------------------------------------------|           
B|-----------------------------------------------------|
G|-9---10-10-10\9----9-9-9-9--9---10-10-10\9---7-7-7-7-|
D|-9---10-10-10\9----9-9-9-9--9---10-10-10\9---7-7-7-7-|
A|-7----8--8--8\7----7-7-7-7--7----8--8--8\7---5-5-5-5-|
E|-----------------------------------------------------|