Corrs - What Can I Do Chords & Tabs

 

What Can I Do Chords & Tabs

Corrs Chords & Tabs

Version: 1 Type: Tab 0 ratings
1 star 2 stars 3 stars 4 stars 5 stars
comments

What Can I Do Tab

   
What canI do(CORRS)
******************

Intro Riff ( have to stretch your little finger ! )

1--------------------------------------
2--------------------------------------
3-----------4--4---------4-----4-------
4-----------2--2---2-----2-----2-------
5----O-O-O-----------------------------
6---------------------4-----4----------

1--------------------------2-----2------
2-----------5--5-----------O-----O------
3-----------2--2---O--------------------
4----O-O-O--------------2-----2---------
5---------------------------------------
6---------------------------------------



(Chord are same for verse and chorus-play in time with riff)



A         E               D         E
I haven't slept at all in days

A            E                  D      E
It's been so long since we have talked
[ Tab from: http://www.guitartabs.cc/tabs/c/corrs/what_can_i_do_tab.html ]
A          E              D           E
And I have been here many times

A            E                   D      E 
I just don't know what i'm doing wrong



Chorus:


What can i do to make you love me?
What can i do to make you care?
What can i say to make you feel this?
What can i do to get you there?



Verse 2:

There's only so much I can take
And I just got to let it go
And who knows I might feel better yeah
If I don't try and I don't hope



[Repeat chorus]



F#m    
No more waiting  

        A    E
No more aching.....

F#m      
No more fighting 

        A    E
No more trying.....



Verse 3:  


Baby there's nothing more to say
And in a funny way i calm
Because the power is not mine
And i'm just gonna let it fly



[Repeat chorus twice]



And love me...



Verse 4:

D  E  A  E
 
D    E
Love me

A    E
Love me [Repeat until fade]
Comments