Corrs - Somebody For Someone Chords & Tabs

 

Somebody For Someone Chords & Tabs

Corrs Chords & Tabs

Version: 1 Type: Tab 0 ratings
1 star 2 stars 3 stars 4 stars 5 stars
comments

Somebody For Someone Tab

   
Title: Somebody for Someone
    by: The Corrs --> "In Blue"
Tabbed by: E.J. Gemzon --> clapton_riff@yahoo.com


chords u need:

F   133211
Bb  x13331
Eb  x68886

Here are some licks done by 
 an elecric guitar (with light distortion)
  
  1)
e-------------------|
b-------------------|
g-------------------|
d---------1h3-------|
a---1--3------------|
E-------------------|

  2)
e-----------------|
b-----------------|
g-----------------|
d-----------------|
a---1--3--3-------|
E-----------------|
[ Tab from: http://www.guitartabs.cc/tabs/c/corrs/somebody_for_someone_tab.html ]
Intro, Verses, Chorus, Instrumentals:
   F, Bb, Eb, F

(The strumming sounds best when you use
 a 12-string guitar.)


Instrumentals:

e-----6p5-----------6p5----------|
b---6-----6--4----6-----6--4-----|
g--------------------------------|
d--------------------------------|
a--------------------------------|
E--------------------------------|

e----6p5----------6p5-6--8--6--5----|
b--6-----6--4---6----------------6--|
g-----------------------------------|
d-----------------------------------|
a-----------------------------------|
E-----------------------------------|

  That's it folks!
  Send questions or comments or anything
  to me via an e-mail, they're welcome.  

Comments