Corrs - Runaway Chords & Tabs

 

Runaway Chords & Tabs

Corrs Chords & Tabs

Version: 1 Type: Bass Tab 0 ratings
1 star 2 stars 3 stars 4 stars 5 stars
comments

Runaway Bass Tab

THE CORRS - "Runaway" - Bass Tab

6/8 Time
Standard Tuning(EADG)

INTRO:
|----------------|-------------|-------------|-------------|
|----------------|-3-----------|-------------|-------------|
|----------------|-------------|-------------|-------------|
|---------1/13\8-|-------------|-----------1-|-1-----------|
  1 2 3 4 & 5  6   1 2 3 4 5 6   1 2 3 4 5 6   1 2 3 4 5 6

|-------------|
|-------------|
|-------------|
|-------------|
  1 2 3 4 5 6

1ST VERSE: rest
1ST PRE-CHORUS: rest
1ST CHORUS: rest

2ND VERSE:
|-------------|-------------|-------------|-----------------|
|-------------|-------------|-------------|-------------3---|
|-------------|-1-----------|-------------|-1-------3-5---5-|
|-1-----3-----|-------------|-1-----3---3-|-----------------|
  1 2 3 4 5 6   1 2 3 4 5 6   1 2 3 4 5 6   1 2 3 4 5 & 6 &

|-------------|-------------|---------------|-------------|
|-------------|-------------|---------------|-------------|
|-------------|-1-----------|-------------0-|-1---------3-|
|-1-----3-----|-------------|-1-----3---3---|-------------|
  1 2 3 4 5 6   1 2 3 4 5 6   1 2 3 4 5 6 &   1 2 3 4 5 6

2ND PRE-CHORUS:
|---------------|-------------|-------------|-------------|
|---------------|-------------|-------------|-------------|
|-5-----------3-|-1---------1-|-------------|-3-----------|
|---------------|-------------|-3-----------|-------------|
  1 2 3 4 5 6 &   1 2 3 4 5 6   1 2 3 4 5 6   1 2 3 4 5 6

|---------------|-------------|-------------|---------------|
|---------------|-------------|-------------|---------.-.-.-|
|-5-------1-3---|-1-------1---|-------------|-3-------1-1-1-|
|---------------|-------------|-3-----------|-----1-3-------|
  1 2 3 4 & 5 6   1 2 3 4 5 6   1 2 3 4 5 6   1 2 3 & 4 5 6

CHORUS:
|-------------|-------------|-------------|-------------|
|-------------|-------------|-------------|-------------|
|-------------|-1---------3-|-------------|-1---------3-|
|-1-----3-----|-------------|-1-----3-----|-------------|
  1 2 3 4 5 6   1 2 3 4 5 6   1 2 3 4 5 6   1 2 3 4 5 6 
[ Tab from: http://www.guitartabs.cc/tabs/c/corrs/runaway_btab.html ]
|-------------|-------------|-----------------|-------------|
|-------------|-------------|-----------------|-------------|
|-------------|-1---------3-|-----5-----------|-1-----------|
|-1-----3-----|-------------|-5-------3---3-5-|-------------|
  1 2 3 4 5 6   1 2 3 4 5 6   1 2 & 3 4 5 6 &   1 2 3 4 5 6

INTERLUDE:
|---------------|-------------|-------------|-------------|
|-3-------------|-------------|-------------|-------------|
|---------------|-------------|-1-----------|-3-----------|
|---------------|-3-----------|-------------|-------------|
  1 2 3 4 5 6 &   1 2 3 4 5 6   1 2 3 4 5 6   1 2 3 4 5 6

|---------------|-------------|-------------|-------------|
|---------------|-------------|-------------|-------------|
|---------------|-------------|-1-----------|-3-----------|
|-1-------------|-3-----------|-------------|-------------|
  1 2 3 4 5 6 &   1 2 3 4 5 6   1 2 3 4 5 6   1 2 3 4 5 6

3RD PRE-CHORUS:
            (x7)               guitar break 
|---------------|-------------|-------------|
|*-------------*|-.-.-.-.-.-.-|-------------|
|*---r-e-s-t---*|-3-3-3-1-1-1-|---r-e-s-t---|
|---------------|-------------|-------------|
   1 2 3 4 5 6    1 2 3 4 5 6   1 2 3 4 5 6

END:
|--------------|-------------|-------------|-------------|
|*-------------|-------------|-------------|-------------|
|*-------------|-1---------3-|-------------|-1---------3-|
|--1-----3-----|-------------|-1-----3-----|-------------|
   1 2 3 4 5 6   1 2 3 4 5 6   1 2 3 4 5 6   1 2 3 4 5 6 

|-------------|-------------|-----------------|--------------|
|-------------|-------------|-----------------|-------------*|
|-------------|-1---------3-|-----5-----------|-1-----------*|(x3)
|-1-----3-----|-------------|-5-------3---3-5-|--------------|
  1 2 3 4 5 6   1 2 3 4 5 6   1 2 & 3 4 5 6 &   1 2 3 4 5 6

|--------------|-------------|
|*-------------|------------*| (repeat to fade-out & improvise)
|*-------------|-1-----3----*|      
|--1-----3-----|-------------|
   1 2 3 4 5 6   1 2 3 4 5 6

By: Johari Taylor
E-mail: viking@powerup.com.au
More Bass Tabs: http://www.powerup.com.au/~viking/basstab.htm

Comments