Corrs - Breathless Chords & Tabs

 

Breathless Chords & Tabs

Corrs Chords & Tabs

Version: 2 Type: Tab 0 ratings
1 star 2 stars 3 stars 4 stars 5 stars
comments

Breathless Tab

The Corrs - Breathless
[ Tab from: http://www.guitartabs.cc/tabs/c/corrs/breathless_tab_ver_2.html ]
e|-----------------------------------------------------------------|
b|-5/12--12-11----12-11---------------16-17-16-14----19-17-16------|
g|-------------11-------11-13-16-15-11------------16----------18---|
d|-----------------------------------------------------------------|
a|-----------------------------------------------------------------|
e|-----------------------------------------------------------------|

e|----------------------------------|
b|-17-16--------16----15--16--------|
g|-------18--16----18---------------|
d|----------------------------------|
a|----------------------------------|
e|----------------------------------|
Comments