Corrs - All The Love In The World Chords & Tabs

 

All The Love In The World Chords & Tabs

Corrs Chords & Tabs

Version: 3 Type: Tab 0 ratings
1 star 2 stars 3 stars 4 stars 5 stars
comments

All The Love In The World Tab

   
Song All The Love In The World
Transcribed by Jason Babiera
Tuning - EADGBE

Intro

A-Bm-D-E

e------------------------------------
B--------1/2-2-2---------------------
G--2-1-2---------4-2-4---1-2-4-1-1-2-
D----------------------4-------------
A------------------------------------
E------------------------------------

			    A
e------------------------------------
B-1/2-3-3/5-3-2----------------------
G---------------4--------------------
D-----------------4-1-2-1-1-2--------
A------------------------------------
E------------------------------------

       A          Bm         D	        E
I. 	I'm not looking for someone to talk tO
       A	  Bm            D  	   E
	I've got my friends, I'm more than OK
       A  	  Bm	      D	  	 E
	I've got more than a girl could wish for
       A          Bm	  	 D 	       E
	I live my dreams but it's not all they say


  Riff I	Riff II
e--1-0------|--1-1-1-0-----
B------3-1--|----------3-1-
G-----------|--------------
D-----------|--------------
A-----------|--------------
E-----------|--------------
       

	F      G    C   Riff I
	Still I believe
       	   F         G        C   Riff II
	I'm missing something real
	  F 		     G
	I need someone who really sees me

       D		     G
Chorus:	Don't wanna wake up alone anymore
       Gm			D
	Still believing you'll walk through my door
       Bm		   E
	All I need is to know it's for sure
       	    G	      Gm
	Then I'll give all the love in the world

[ Tab from: http://www.guitartabs.cc/tabs/c/corrs/all_the_love_in_the_world_tab_ver_3.html ]
e-----------------------------|-----------
B---1/3-5-5/7-5-3-2-2-3-------|-----------
G-2---------------------2/4---|--2-1-2----
D-----------------------------|-----------
A-----------------------------|-----------
E-----------------------------|-----------


II.	( Use same chords in verse one )

	I've often wondered if love's an illusion
	
	Just to get you through the lonliest days

	I can't criticize it, I have no hesitations

	My imagination just stole me away


	Still I believe

	I'm missing something real

	I need someone who really sees me

	
	( REPEAT CHORUS )

SOLO

e-----------------------|------------------------------  
B---1/3-5-5/7-5-3-2h3---|--3-5-5-7-7-7-7-5-5-5-5-3-3-3-  
G-2---------------------|------------------------------  
D-----------------------|------------------------------  
A-----------------------|------------------------------  
E-----------------------|------------------------------  

							  Riff III
e-----------------------------------0-----0-----3-2-0---|---------
B-3-3p2h3-3-3p2h3-3-3p2h3/5-----2h3---3-----3-----------|--2-3-2--
G-----------------------------2---------2-----2---------|-------2-
D-------------------------------------------------------|---------
A-------------------------------------------------------|---------
E-------------------------------------------------------|---------

       G
	Love's for a lifetime 
       D
	Not for a moment
       Bm			D   Riff III
	So how can I throw it away
       G
	I'm only human
       D
	And nights grow colder
       Bm			D
	With no one to love me this way
  		G		   A
	Yeah, I need someone who really sees me


CHORUS II	

       E		     A
	And I won't wake up alone anymore
       Am			E
	Still believing you'll walk through my door
       C#m			    F#
	You'll reach for me and I know it's for sure
	    A	      Am
	Then I'll give all the love in the world


e-----------------------------
B-0-1/5-7-7/9-7-5-4-4-5-------
G-----------------------4-6---
D-----------------------------
A-----------------------------
E-----------------------------


this is my first time to tab a song, any comments mail me at karlo85@yahoo.com
Comments