Corrs - All The Love In The World Chords & Tabs

 

All The Love In The World Chords & Tabs

Corrs Chords & Tabs

Version: 2 Type: Tab 0 ratings
1 star 2 stars 3 stars 4 stars 5 stars
comments

All The Love In The World Tab

   
Title: All The Love In The World
      The Corrs, "in Blue"
Tabbed by: E.J. Gemzon
  ===> clapton_riff@yahoo.com


b = bend slightly
Em7  022033
E/B  x22100

Intro: A, E, D, E 

e--------------------------------------------|
b--------------------------------------------|
g-2-1-2~--2/(6)-6-6--4-3/(4)-4~---1-2-4-1-1-2|
d-------------------------------4------------|
a--------------------------------------------|
E--------------------------------------------|

e--------------------------------------------|
b--------------------------------------------|
g-6/(7)--7/(9)--7\(6)-4---1-2--1-1-2~--2-1-2-|
d-----------------------4--------------------|
a--------------------------------------------|
E--------------------------------------------|

Verse Riff:
  A         E        D       E   
e--------------------------------0----|
b-----2---------0--------3----------0-|
g-------2---------1----2--------------|
d---2---------2------0---------2------|
a-0-----------------------------------|
E-----------0----------------0--------|

e------0-----------|
b---------0--------|
g---1--------------|
d------------------|
a------------------|
E******************|

******** = play only at the end of 
           2nd and 4th line (continuation of E)

Pre-Chorus:
Dm                F#
 But still I believe
     Fill 1           Dm
 I'm missin', I'm missing
            E/B  Fill 2
 something real
   G#        F#       E/B
 I need someone who really sees me

Chorus:
 D    
 Don't wanna wake up 
 A           G#
 alone anymore still believin'
         D
 you'll walk through my door
Em                 G#
 All I need is to know it's
                D
 for sure then I'll give
                      A    Fill 3
 All the love in the world
[ Tab from: http://www.guitartabs.cc/tabs/c/corrs/all_the_love_in_the_world_tab_ver_2.html ]
Here are some fills:
  Fill 1
e-------------------------|
b------3/(5)--4--2--0-----|
g---2---------------------|
d-------------------------|
a-------------------------|
E-------------------------|
  Fill 2
e------------------------------------|
b---5--5--5---4---2---0--------------|
g---6--------------------------------|
d------------------------------------|
a------------------------------------|
E------------------------------------|
  Fill 3 ==>play also just before coda
e------------------------------------|
b----3--5-5/(7)--5h7-----------------|
g--2-----------------7-6~-7----------|
d---------------------------7/(9)----|
a------------------------------------|
E------------------------------------|
...don't waanna wake up alone anymore 

Solo:

e------------------------------------|
b------5-5/(7)--5h7p5----------------|
g----7----------------7-6-6--7/(9)---|
d--7---------------------------------|
a------------------------------------|
E------------------------------------|
                             hold bend
e------------------------------------|
b----3-2-3-5/(7)--7--7b--------------|
g--2---------------------7--7b-------|
d------------------------------------|
a------------------------------------|
E------------------------------------|

e------------------------------------|
b---3p2-2-3p2-3p2-3-3p2-3p2-3/(5)----|
g-3----------------------------------|
d------------------------------------|
a------------------------------------|
E------------------------------------|

e-----0---0-0---3--2--0-0-----------------|
b---3---3-----3-----------3---------------|
g-2---------------------------------------|
d---------------------------7-7--6-4-4----|
a---------------------------5-5--4-2-2----|
E-----------------------------------------|

Bridge:
 Em7, D
    Em7               D         A
 I need somoene who really seas me

Chorus: use these chords:
  E, B, Bb, E, F#m, Bb, E, B

Coda:
  E, F#, B

shuh! I'm tired now. I hope this sounds
  alright to you.
Jim must be using an ovation guitar here.
Anyway, keep supporting these amazing family.
Comments