Corrs - All The Love In The World Chords & Tabs

 

All The Love In The World Chords & Tabs

Corrs Chords & Tabs

Version: 1 Type: Tab 0 ratings
1 star 2 stars 3 stars 4 stars 5 stars
comments

All The Love In The World Tab

Title: All the Love in the World
Artist: The Corrs
Tabbed by: E.J. Gemzon  clapton_riff@yahoo.com

This is just an intro part  8D
But if U are interested with the whole thing
you can e-mail me.

[ Tab from: http://www.guitartabs.cc/tabs/c/corrs/all_the_love_in_the_world_tab.html ]
e----------------------------------------|
b----------------------------------------|
g-2-1-2~--2/(6)-6-6--4-4-4~---1-2--1-1-2~|
d---------------------------4------------|
a----------------------------------------|
E----------------------------------------|

e--------------------------------------------|
b--------------------------------------------|
g-6/(7)--7/(9)--7\(6)-4---1-2--1-1-2~--2-1-2-|
d-----------------------4--------------------|
a--------------------------------------------|
E--------------------------------------------|

Credit goes to Anthony Drennan and the
Great siblings.
Comments