Corrosion Of Conformity - Fuel Chords & Tabs

 

Fuel Chords & Tabs

Corrosion Of Conformity Chords & Tabs

Version: 1 Type: Tab 0 ratings
1 star 2 stars 3 stars 4 stars 5 stars
comments

Fuel Tab

Band - Corrosion Of Conformity
Song - Fuel

Note: tune down to a C to play.

Intro:
|------------|
|------------|
|------------|
|------------|
|--7-7-7-10--|
|--5-5-5-8---|

|-----------------------|     |-----------------------------------------|   
|-----------------------|     |-----------------------------------------|   
|-----------------------|     |-----------------------------------------|   
|-----------------------| x16 |-----------------------------------------| x4
|-7-7-7-4-4---4-4-----4-|     |-7-7-7-10--10-10-10-10-10-10-10-10-10-10-|   
|-5-5-5-2-2-2-2-2-2-2-2-|     |-5-5-5-8---8--8--8--8--8--8--8--8--8--8--|   
[ Tab from: http://www.guitartabs.cc/tabs/c/corrosion_of_conformity/fuel_tab.html ]
|-----------------------|     |-----------------------------------------|   
|-----------------------|     |-----------------------------------------|   
|-----------------------|     |-----------------------------------------|   
|-----------------------| x8  |-----------------------------------------| x4
|-7-7-7-4-4---4-4-----4-|     |-7-7-7-10--10-10-10-10-10-10-10-10-10-10-|   
|-5-5-5-2-2-2-2-2-2-2-2-|     |-5-5-5-8---8--8--8--8--8--8--8--8--8--8--|   

|------------------------------------------------------------------|
|------------------------------------------------------------------|
|------------------------------------------------------------------|
|------------------------------------------------------------------| x6
|-10--9-7-----10--9-7-----7-7-/-9--7--10--9-7-----109--7-----7--10-|
|-8---7-5--5--8---7-5--5--5-5-/-7--5--8---7-5--5--8-7--5--5--5--8--|

|-----------------------|     |-----------------------------------------|   
|-----------------------|     |-----------------------------------------|   
|-----------------------|     |-----------------------------------------|   
|-----------------------| x14 |-----------------------------------------| x4
|-7-7-7-4-4---4-4-----4-|     |-7-7-7-10--10-10-10-10-10-10-10-10-10-10-|   
|-5-5-5-2-2-2-2-2-2-2-2-|     |-5-5-5-8---8--8--8--8--8--8--8--8--8--8--|
Comments