Corrosion Of Conformity - Drowning In A Daydream Chords & Tabs

 

Drowning In A Daydream Chords & Tabs

Corrosion Of Conformity Chords & Tabs

Version: 1 Type: Tab 0 ratings
1 star 2 stars 3 stars 4 stars 5 stars
comments

Drowning In A Daydream Tab

Band - Corrosion Of Conformity
Song - Drowning In A Daydream

Intro:
d |---------------|    |---|
A |-------2-b-r_0-|    |---|
F |-2--2----------|    |-4-|
C |-2--2----------| x3 |-4-|
G |-0--0----------|    |-2-|
D |---------------|    |---|

Verse:
                   Guitar 1 
d |---------------------|------------------------| The 0 in () is played
A |---------------------|-------------3b-2b-(0)--| only the first time.
F |-----------------2---|-----2--4--2------------|
C |-----4__2_0----2-----|------------------------|
G |-------------0-------|------------------------|
D |---------------------|------------------------|
|
|Guitar2
d |---------------------|------------------------|
A |---------------------|------------------------|
F |---------------------|----------------------7-|
C |-7--7-----7-10-10-10-|--10-9-9-9-----10-9-7-7-|
G |-7--7-----7-10-10-10-|--10-9-9-9-----10-9-7-5-|
D |-5--5-----5-8--8--8--|--8--7-7-7-----8--7-5---|
[ Tab from: http://www.guitartabs.cc/tabs/c/corrosion_of_conformity/drowning_in_a_daydream_tab.html ]
For the verses you need HEAVY chorus effect....that goes (no chorus here)
d |---------------------------|-------------0--------3--5-|--------------|
A |-------------------------1-|----------------2----------|--------------|
F |----------------------2----|---------------------------|---------7----|
C |--------------5------------|---------------------------|---------7----|
G |-----------7---------------|---------------------------|---------5----|
D |---------------------------|---------------------------|--------------|

Then it goes back to the 2nd guitar part only! for a while and end with..
d |----------------------------------------------------------------------|
A |------------------------------------------------------------2-b-r_0---|
F |------------------------------------------------7---------------------|
C |-7--7--7-7-10-10-10-10--10-10-9-9-9-9--9-9--9-7-7------7--------------|
G |-7--7--7-7-10-10-10-10--10-10-9-9-9-9--9-9--9-7-5------7--------------|
D |-5--5--5-5-8--8--8--8---8--8--7-7-7-7--7-7--7-5--------5--------------|

   Chorus:
d |-------------------------|--------------------|-----------------------|
A |-------------------------|--------------------|-----------------------|
F |-------------------------|-----------------9--|-----------------------|
C |-9-------7-------2-------|-9-------7-------9--|-9-------12---------2--|
G |-9-------7-------2-------|-9-------7-------7--|-9-------12---------2--|
D |-7---7-7-5---5-5-0-------|-7---7-7-5---5-5----|-7---7-7-10---10-10-0--|

d |-------------------------|
A |----------------------12-|
F |-12----12----12----14----|
C |----12----12----12-------|
G |-------------------------|
D |-------------------------|

   Ending:
d |-------------------------|
A |-------------------------|
F |-------------------------|
C |-9--9--9--9--9--2--7--9--| repeat
G |-9--9--9--9--9--2--7--7--|
D |-7--7--7--7--7--0--5-----|
Comments