Corrosion - Malice Chords & Tabs

 

Malice Chords & Tabs

Corrosion Chords & Tabs

Version: 1 Type: Tab 0 ratings
1 star 2 stars 3 stars 4 stars 5 stars
comments

Malice Tab


	Tabbed by: s-dogg13 
	Tuning: DADGBE
	Date: february 20 2004
	Band Name: Corrosion
	song name: Malice

		

		Intro (clean)

		e|---------------------------------------------------------------------
		b|---------------------------------------------------------------------
		g|---------------------------------------------------------------------
		d|---------------------------------------------------------------------
		a|---------------------------------------------------------------------
		d|--1-1-1-1-1--2--2-2-2-2--1-1-1-1-1--6-6-6-6--5-5-5-5---(play 2 times)

		
		Verse    (heavy distortion)

		e|-----------------------------------------------------------
		b|-----------------------------------------------------------
		g|-----------------------------------------------------------
		d|-----------------------------------------------------------
		a|--1-1-1-1-1--2-2-2-2-2--1-1-1-1-1--6-6-5-5---
		d|--1-1-1-1-1--2-2-2-2-2--1-1-1-1-1--6-6-5-5----(Play 4 times)

		
		Solo	(i used wah-wah but u dont need it)

		e|---15--18-----13--16--15------15--18----13--10--8
		b|------------16------------------16-------------------------
		g|--------------------------------------------------------------
		d|--------------------------------------------------------------
		a|--------------------------------------------------------------
		d|--------------------------------------------------------------

		
		Verse    (heavy distortion)
[ Tab from: http://www.guitartabs.cc/tabs/c/corrosion/malice_tab.html ]
		e|-----------------------------------------------------------
		b|-----------------------------------------------------------
		g|-----------------------------------------------------------
		d|-----------------------------------------------------------
		a|--1-1-1-1-1--2-2-2-2-2--1-1-1-1-1--6-6--5-5---
		d|--1-1-1-1-1--2-2-2-2-2--1-1-1-1-1--6-6--5-5----(Play 4 times)





		Bridge  (clean)


		e|-----------------------------------------------------------------------
		b|-----------------------------------------------------------------------
		g|-----------------------------------------------------------------------
		d|-----0--------- 8-------------------------------------------------------
		a|------ -0----------8----------------------------------------------------
		d|---0--------- 0--------0-0--1-1--0-0--2-2--0-0--1-1--5-5--6-6----  (play 2x)

		now do a harmonic on 12 on high e.     
		E|------------(12)------------------

		Verse    (heavy distortion)

		e|-----------------------------------------------------------
		b|-----------------------------------------------------------
		g|-----------------------------------------------------------
		d|-----------------------------------------------------------
		a|--1-1-1-1-1--2-2-2-2-2--1-1-1-1-1--6-6--5-5---
		d|--1-1-1-1-1--2-2-2-2-2--1-1-1-1-1--6-6--5-5----(Play 4 times)


		Have fun learning this song, its easy to make up words to so play around and 
		put in some good lyrics.

		
		








	
Comments