Corporate Avenger - Enemy Of The Gospel Chords & Tabs

 

Enemy Of The Gospel Chords & Tabs

Corporate Avenger Chords & Tabs

Version: 1 Type: Tab 0 ratings
1 star 2 stars 3 stars 4 stars 5 stars
comments

Enemy Of The Gospel Tab

#----------------------------------PLEASE NOTE--------------------------------#
#This file is the author's own work and represents their interpretation of the#
#song. You may only use this file for private study, scholarship, or research.#
#-----------------------------------------------------------------------------#
#-- File created with Instab - http://www.pconline.com/~smcarey/instab.html --#
#-----------------------------------------------------------------------------#

Author/Artist: Corporate Avenger
Title: Enemy of the Gospel
Transcribed by: Barret Strickland
You want a nice distorted sound for it with little to no mids. Turn the
highs and lows up all the way and try to get it to sound like the CD.
I use the Boss Metal Zone, which I think is the best pedal ever made.

------------------------------------------------------------------------------
------------------------------------------------------------------------------
------------------------------------------------------------------------------
-7-2-5-7--7-2-5-7--7-------------------------------10-/-----------------------
-7-2-5-7--7-2-5-7--7-------------------------------10-/-----------------------
-5-0-3-5--5-0-3-5--5--------------------------------8-/-----------------------
 Do this 3 times then the fast part comes. Just do this w/out the 9th chord   

------------------------------------------------------------------------------
------------------------------------------------------------------------------
------------------------------------------------------------------------------
-7-5-4-3--7-5-4-3--7-5-4-3--7-5-4-3--7-5-4-3--7-5-4-3--7-5-4-3--7-5-4-3-------
-7-5-4-3--7-5-4-3--7-5-4-3--7-5-4-3--7-5-4-3--7-5-4-3--7-5-4-3--7-5-4-3-------
-5-3-2-1--5-3-2-1--5-3-2-1--5-3-2-1--5-2-2-1--5-3-2-1--5-3-2-1--5-3-2-1-------
 "Tow the line and follow me blind, let Jesus carry you home"                 
[ Tab from: http://www.guitartabs.cc/tabs/c/corporate_avenger/enemy_of_the_gospel_tab.html ]
------------------------------------------------------------------------------
------------------------------------------------------------------------------
------------------------------------------------------------------------------
-9--4--7--9-------------------------------------------------------------------
-9--4--7--9-------------------------------------------------------------------
-7--2--5--7-------------------------------------------------------------------
   Verse 2 is the exact same as 1 except at 1:24 it goes up a step to this    

------------------------------------------------------------------------------
------------------------------------------------------------------------------
------------------------------------------------------------------------------
-2---2-2-2-2-2-2---5--5-------------------------------------------------------
-2---2-2-2-2-2-2---5--5-------------------------------------------------------
-0---0-0-0-0-0-0---3--3-------------------------------------------------------
 Free style rapping part(Hit the first note regularly. Palm and chug next.    

------------------------------------------------------------------------------
------------------------------------------------------------------------------
------------------------------------------------------------------------------
-7--7-------------------------------------------------------------------------
-7--7-------------------------------------------------------------------------
-5--5-------------------------------------------------------------------------
 Palm mute...Do that 3 times and on the 4th end with this                     

------------------------------------------------------------------------------
------------------------------------------------------------------------------
------------------------------------------------------------------------------
-------------5--2--3----------------------------------------------------------
-------------5--2--3----------------------------------------------------------
-------------3--0--1----------------------------------------------------------
 Final Part  "YOU LABEL ME!"  Do that harder until the end                    

Comments