Coroner - Shifter Chords & Tabs

 

Shifter Chords & Tabs

Coroner Chords & Tabs

Version: 1 Type: Tab 0 ratings
1 star 2 stars 3 stars 4 stars 5 stars
comments

Shifter Tab

   
                      CORONER - SHIFTER
                        From the Album BEST OF 
 
                       Version 1.0 - MARCH 2001

Transcribed by: LOUIS RIEL 

For Questions, Comments, Newest Version, or Corrections contact
       Louis Riel at: riel2102@aei.net




  - pam mute                     /  - slide up to
\  - slide down to                ~  - vibrato
h  - hammer on                    b  - bend
p  - pull off                          Suffixes for bend
ph - pinch harmonic                     f - full bend    h - half bend
*  - see comment                        r - release      t - tap bend
X  - percussion note                    ~ - vibrato bend
@  - slight palm mute             ()  - ghost note, sustained note
"  - tremolo pick until next note




Tune to Eb (Eb,Ab,Db,Gb,Bb,Eb)
[ Tab from: http://www.guitartabs.cc/tabs/c/coroner/shifter_tab.html ]
|---------------|-----------|------------------|--------------------------------------------------------------|
|---------------|-----------|------------------|--------------------------------------------------------------|
|---------------|----4------|-8--7--10--9--12--|-8---------------8--7-----------------------------------------|
|-8-7-10-9--12--|------3----|-8--7--10--9--12--|-8--10-12--6--5--8--7--12-6-5---------------------------------|
|-7-8-9-10--11--|-1------1--|-6--5--8---7--10--|-6--10-12--6--5--6--5--12-6-5---------------------------------|
|-6-9-8-11--10--|-----------|-6--5--8---7--10--|-6--8--10--4--3--6--5--10-4-3---------------------------------|

|--------------------------------------------------|			  
|--------------------------------------------------|			  
|-8--11-10--13--7--8--11--10--9---12---------------|			  
|-8--11-10--13--6--7--10--9---10--11---------------|			  
|-6--9--8---11--5--6--9---8---11--10---------------|			  
|-6--9--8---11-------------------------------------|			  








Check out Opeth's Domain, the only place to find Opeth tabs:
               http://darkwood.com/opeth/
lwy
Comments