Cornerstone - Rainy Day Chords & Tabs

 

Rainy Day Chords & Tabs

Cornerstone Chords & Tabs

Version: 1 Type: Tab 0 ratings
1 star 2 stars 3 stars 4 stars 5 stars
comments

Rainy Day Tab

"Rainy Day"
By: Cornerstone

This song is played totally on acoustic
Use finger picking
Standard Tuning

Verse
E--------------------------------------------------------------
B-3---3h5--2---2--2---2h3--0---0-------------------------------
G--------------------------------------------------------------
D--------------------------------------------------------------
A-2-2------2-2----0-0------2-2---------------------------------
E--------------------------------------------------------------

Chorus
E-3p2-----2---------2-----------2------------------------------
B------3--------3-----------3----------------------------------
G--------------------------------------------------------------
D--------------------------------------------------------------
A-3----3-----3----------3--------------------------------------
E--------------------------------------------------------------
[ Tab from: http://www.guitartabs.cc/tabs/c/cornerstone/rainy_day_tab.html ]
E-3p2-----------2-----------2----------------------------------
B------3p0----------0-----------0------------------------------
G--------------------------------------------------------------
D--------------------------------------------------------------
A-2----2-----2----------2--------------------------------------
E--------------------------------------------------------------

Chorus 2
E-3p2-----2---------2-----------2------------------------------
B------3--------3-----------3----------------------------------
G--------------------------------------------------------------
D--------------------------------------------------------------
A-3----3-----3----------3--------------------------------------
E--------------------------------------------------------------

E-3p2-----------3---------------5------------------------------
B------3p0----------5-------7----------------------------------
G--------------------------------------------------------------
D--------------------------------------------------------------
A-2----2-----3----------5--------------------------------------
E--------------------------------------------------------------

Bridge
E--------------------------5---5-------------------------------
B-7---7h8--8---8--5---5h7--------------------------------------
G--------------------------------------------------------------
D--------------------------------------------------------------
A-5-5------5-5----5-5------5-5---------------------------------
E--------------------------------------------------------------

Guitar Song Structure
Verse x6
Chorus x2
Verse x6
Chorus x3
Chorus 2
Bridge x6
Chorus x4

Comments