Corey Vanden Heuvel - Radiant Skys Chords & Tabs

 

Radiant Skys Chords & Tabs

Corey Vanden Heuvel Chords & Tabs

Version: 1 Type: Tab 0 ratings
1 star 2 stars 3 stars 4 stars 5 stars
comments

Radiant Skys Tab

"Radiant Skys" by Corey vanden Heuvel


(       2x        )(Repeat  )                   (   4x   )(   4x  )(   4x  )( Repeat)
-------------------]----------]-----------------]--------]--------]--------]--------]------------]
-------------------]----------]-----------------]--------]--------]--------]--------]------------]
-----11-8-----11-8-]-----11-9-]--11--12--11--9--]----9-5-]----7-4-]----4-2-]----4-1-]----4-5-4-2-]
---9--------9------]---10-----]--10--10--10--10-]---7----]---5----]---3----]---2----]---3-----3--]
-------------------]----------]-----------------]--------]--------]--------]--------]------------]
-7--------7--------]-8--------]-8---8---8---8---]-5------]-3------]-1------]-0------]-1----------]
(        Play Progression 4x                    )

--------------0-]                           ]-----------------]----------------]----------------]
--------------0-]                           ]------------5----]----------------]----------------]
----4-1---4-1---]REPEAT PROGRESSION A 2x    ]----5--------5---]----7-------7---]----4-------4---]
---2-----2------]                           ]---7-7-----7--7--]---7-7-----7-7--]---3-3-----3-3--]
----------------]                           ]--7---7---7----7-]--5---5---5---5-]--3---3---3---3-]
-0------0---0---]                           ]-5-----5-5-------]-3-----3-3------]-1-----1-1------]
[ Tab from: http://www.guitartabs.cc/tabs/c/corey_vanden_heuvel/radiant_skys_tab.html ]
                                            (Repeat   )
----------------]                           ]---------]-----0--0-0-]-----0--0-0-]-------0--------]
----------------]                           ]---------]-----0--0-0-]-----0--0-0-]----0---0-----0-]
----7-------7---]repeat progression 4x      ]----6----]-----9--9-9-]-----8--8-8-]---3-3---3---3--]
---5-5-----5-5--]                           ]---6-----]-----9--9-9-]-----9--9-9-]--4---4---4-4---]
--5---5---5---5-]                           ]--6--6h7-]-----7--7-7-]-----9--9-9-]----------------]
-3-----3-3------]                           ]-9-------]-0-0-0--0-0-]-7-7-7--7-7-]-2---------2----]
                                            (                 Play Progression 7x                )
                                                                                  ( Repeat ) 
-------0--------]-------0--------]                        ]------------------0----]--------]-----0------7-]]
----0---0-----0-]----0---0-----0-]                        ]-------------------0---]--------]------0-----7-]]
---1-1---1---1--]---3-3---3---3--]PLAY PROGRESSION A ONCE ]---1h4---1h4---1h4--1--]---11-8-]---8---8----8-]]
--2---2---2-2---]--4---4---4-4---]                        ]--2-----2-----2------2-]--9-----]--9-9---9---9-]]
----------------]----------------]                        ]-----------------------]--------]------------x-]]
-0---------0----]-2---------2----]                        ]-0-----0-----0---------]-7------]-7-------7--7-]]
(     Play Progression 6x        )       
Comments