Corey Taylor - Bother Chords & Tabs

 

Bother Chords & Tabs

Corey Taylor Chords & Tabs

Version: 1 Type: Tab 0 ratings
1 star 2 stars 3 stars 4 stars 5 stars
comments

Bother Tab

   
Bother-Corey Taylor
Spider-Man Soundtrack

*Eb*
Eb Ab Db Gb Bb Eb

I figured this out on my own, so fuck off if itís wrong
lolz.....j/k..... 

Intro: clean with reverb, let ring throughout

Fig. 1 x2

e-------------------------------------------------------
b-7h8----7----7h8p7-----------8----7----7h8p7-----------
g-7h9----7----------9p7-------9----7----------9p7-------
d-7h9----7--------------9-----9----7--------------9-----
a-7------7--------------------7----7--------------------
e-------------------------------------------------------

Verse:

e--------------------------------------------------------------
b-8------7------8------7--------------7h8----7---7h8p7---------
g-9------7------9------7------4-------7h9----7---------9p7-----
d-9------7------9------7------5-------7h9----7-------------9---
a-7------5------7------5------5-------7------------------------
e-----------------------------3--------------------------------

e--------------------------------------------------------------
b-8------7------8------7--------------7------------------------
g-9------7------9------7------4-------7------------------------
d-9------7------9------7------5-------7------------------------
a-7------5------7------5------5-------5------------------------
e-----------------------------3--------------------------------

Chorus:

e-----------------------------------------------------------------
b-8--------7--------8--------3--------8--------7--------5----7----
g-9--------7--------9--------2--------9--------7--------5----7----
d-9--------7--------9--------4--------9--------7--------5----7----
a-7--------5--------7--------2--------7--------5--------3----5----
e-----------------------------------------------------------------

Bridge ? ...i wish i had a reason...

e--------------------------------------
b-8--------3--------5--------7---------
g-9--------2--------5--------7---------
d-9--------4--------5--------7---------
a-7--------2--------3--------5---------
e--------------------------------------

Solo: thereís bass playing a solo too, i think, sounds like it

e-----------------------------------------------------------------
b-----10p8p7-8~~~------7h8-8~~~-----------------------------------
g------------------7h9----------9br---9br--------7----------7-9br-
d--------------------------------------------7h9---9----7h9-------
a-----------------------------------------------------------------
e-0---------------------------------------------------------------
[ Tab from: http://www.guitartabs.cc/tabs/c/corey_taylor/bother_tab.html ]
e-----------------------------------------------------------------
b---------10br----8-10p8-7----------------------------------------
g-(9)~~~~-----------------------------------7h9~~~~---------------
d-----------------------------------------------------------------
a---------------------------------5h7br---------------------------
e-----------------------------5h7---------------------------------

Here is the chord pro part.....

1st Verse:

Em     D       Em      D       G               Em    D
wish I was, to dead to cry, my self affliction fades,
Em        D         Em   D     G            D
stones to throw at my creator, masochist to which I cater 

Chorus:

Em                D       Em              Bm7
you don't need to bother, I don't need to be, 
Em                 D           C          
I'll keep slipping farther but once I hold on,
  D                     Fig. 1
I won't let go till it bleeds 

Verse 2:

Em     D       Em      D          G               Em    D
wish I was, to dead to care, if indeed I cared at all, 
Em    D     Em       D        G             D
never had a voice to protest, so you fed me shit to digest,

Bridge ?

Em                   Bm7
I wish I had a reason, my flaws are open seasoned, 
C                         D
for this I gave up trying, one good turn deserved my dying 

Chorus:
Solo:
Fig. 1

3rd Verse:

Em     D       Em       D        G               Em     D
wish I died, instead of lived, a zombie hides my face, 
Em       D        Em     D
shell forgotten with its memories,
G                 D 
diaries left with cryptic entries and 

Outro:

Em                D       Em              Bm7
you don't need to bother, I don't need to be,(i donít need to be)
Em                 D            C  
I'll keep slipping farther, but once I hold on,
  D                    Em                        D
I won't let go till it bleeds, you don't need to bother,
Em              Bm7      Em                 D
I don't need to be, yea, I'll keep slipping farther,
    C                             D (let ring)
but once I hold on,(once i hold on)                
I'll never have doubt my deceit

Fig. 1

thatís it

this is the FIRST tab for this, WHOOO HOOO !
Enjoy

trevor jones
timmy91199@yahoo.ca
Comments