Corey Smith - Its Over Chords & Tabs

 

Its Over Chords & Tabs

Corey Smith Chords & Tabs

Version: 1 Type: Tab

Its Over Tab

   
-------------------------------------------------------------------------------
			     It's Over - Corey Smith
-------------------------------------------------------------------------------
Tabbed by: Jayrod

Tuning: standard
[ Tab from: http://www.guitartabs.cc/tabs/c/corey_smith/its_over_tab.html ]
Intro, Verses, etc. (mess around with it)
e|----------------------------------------------------------------------------|
B|----------------------------------------------------------------------------|
G|------------------------------------------------9--------9-----9/-----------|
D|-----9--------9--------9---------9----------9h11-----9-----9/---------------|
A|---9h11-----12-----9h11-----9h11--------0--------0-----0--------------------|
E|-----0---------0--------0---------0-----------------------------------------|

"It's time to show myself the door..."
e|----------------------|
B|----------------------|
G|----8------6----------|
D|----9------7----------|  x2
A|----9------7----------|
E|----7------5----------|

"Heartbreak, runaway..."
e|-------------------------------------------|
B|----9--------------------------------------|
G|----9-------8--------6-------8-------------|
D|----9-------9--------7-------9-------------|  x2
A|----7-------9--------7--------9------------|
E|------------7--------5--------7------------|


h=hammer
/ = slide down