Corey Hart - Sunglasses At Night Chords & Tabs

 

Sunglasses At Night Chords & Tabs

Corey Hart Chords & Tabs

Version: 1 Type: Tab 0 ratings
1 star 2 stars 3 stars 4 stars 5 stars
comments

Sunglasses At Night Tab

   
I figured out this tab in 15 min. so if it's messed up then fix it, but 
I'm pretty sure it's correct.
_________________________________________________________________________
Standard tuning(E,A,D,G,B,E)
____________________________
         E----------------|
         B----2--1--------|
(part A) G----------3-----|  2X
         D-3--------------|
         A----------------|
         E----------------|
_______________________________________

         E-----------------------|
         B----2--1---------------|
(Part B) G-0--------3------------|  2X
         D-----------------------|
         A-----------------------|
         E-----------------------|
_______________________________________

         E-----------------------|
         B----2--1---------------|
(Part C) G----------3------------|  2X
         D-4---------------------|
         A-----------------------|
         E-----------------------|
________________________________________________________________________
[ Tab from: http://www.guitartabs.cc/tabs/c/corey_hart/sunglasses_at_night_tab.html ]
Then you just repeat parts A,B, and C until the end.
________________________________________________________________________
YOU CAN ALSO SUBSTITUTE PARTS A, B, AND C FOR PARTS Aa, Bb, AND Cc BELOW
_________________________________________________________________________
          E-------------------------|
          B------2-2--1-1-----------|
(Part Aa) G----------------3-3------|
          D-3-3---------------------|
          A-------------------------|
          E-------------------------|
_______________________________________

          E-------------------------|
          B------2-2--1-1-----------|
(Part Bb) G-0-0------------3-3------|
          D-------------------------|
          A-------------------------|
          E-------------------------|
_______________________________________

          E-------------------------|
          B------2-2--1-1-----------|
(Part Cc) G----------------3-3------|
          D-4-4---------------------|
          A-------------------------|
          E-------------------------|

_______________________________________
Comments