Corbeau - Agriculture Chords & Tabs

 

Agriculture Chords & Tabs

Corbeau Chords & Tabs

Version: 1 Type: Bass Tab

Agriculture Bass Tab

   
Title: Agriculture
Artist: Corbeau
Album: L'intégrale
Tabber: Steph
Email: cyberbassist@hotmail.com


intro
                    X4
G|--------------------|
D|-*-----------------*|
A|-*-7-7-7-7-7-7-7-5-*|
E|--------------------|


Verse/chorus
G|---------------------------------------------------------------|
D|---------------------------------------------------------------|
A|-7-7-7-7-7-7-7-5-7-7-7-7-7-7-7-5-7-7-7-7-7-7-7-5-7-7-7-7-7-7-7-|
E|---------------------------------------------------------------|

G|----------------------------------|
D|----------------------------------|
A|----------------------------------|
E|-2-2-2-2-2-2-2-2--5-5-5-5-5-5-5-5-|


Solo: 0:52
   E
G|---------------------------------------------------------------|
D|---------------------------------------------------------------|
A|-7-7-7-7-7-7-7-5-7-7-7-7-7-7-7-5-7-7-7-7-7-7-7-5-7-7-7-7-7-7-7-|
E|---------------------------------------------------------------|

   F#               A
G|----------------------------------|
D|----------------------------------|
A|----------------------------------|
E|-2-2-2-2-2-2-2-2--5-5-5-5-5-5-5-5-|

   E
G|---------------------------------------------------------------|
D|---------------------------------------------------------------|
A|-7-7-7-7-7-7-7-5-7-7-7-7-7-7-7-5-7-7-7-7-7-7-7-5-7-7-7-7-7-7-7-|
E|---------------------------------------------------------------|
[ Tab from: http://www.guitartabs.cc/tabs/c/corbeau/agriculture_btab.html ]
                                  F#              A
G|---------------------------------------------------------------|
D|---------------------------------------------------------------|
A|-5-7-7-7-7-7-7-7-5-7-7-7-7-7-7-7-------------------------------|
E|--------------------------------2-2-2-2-2-2-2-2-5-5-5-5-5-5-5-5|

    E                             A               B
G|---------------------------------------------------------------|
D|---------------------------------------------------------------|
A|--7-7-7-7-7-7-7-5-7-7-7-7-7-7-7--------------------------------|
E|--------------------------------5-5-5-5-5-5-5-5-7-7-7-7-7-7-7-7|

   G               A 
G|---------------------------------------------------------------|
D|---------------------------------------------------------------|
A|---------------------------------------------------------------|
E|-3-3-3-3-3-3-3-3-5-5-5-5-5-5-5-5-5-5-5-5-5-5-5-5---------------|

  B               G               A
G|---------------------------------------------------------------|
D|---------------------------------------------------------------|
A|---------------------------------------------------------------|
E|7-7-7-7-7-7-7-7-3-3-3-3-3-3-3-3-5-5-5-5-5-5-5-5-5-5-5-5-5-5-5-5|

  B
G|-----------------|
D|-----------------|
A|-----------------|
E|-7-7-7-7-7-7-7-7-|

2:41
  
  16x 16x 16x 16x 16x 16x 32x 1x
G|---|---|---|---|---|---|---|---|
D|---|---|---|---|---|---|---|---|
A|-7-|-5-|-4-|-3-|---|---|---|---|
E|---|---|---|---|-5-|-3-|-2-|-0-|