Coral - Pass It On Chords & Tabs

 

Pass It On Chords & Tabs

Coral Chords & Tabs

Version: 1 Type: Tab 0 ratings
1 star 2 stars 3 stars 4 stars 5 stars
comments

Pass It On Tab

   
Here's the great new single by the Coral, and I'm proud to be the first one to
tab it. It is acoustic guitar-led, and to me, is the perfect tune to play around
a campfire with a few friends in a desolate park in the middle of the night. Enjoy!

Intro and verses on acoustic guitar:

     Am              C                G

E---0-----0---0-----0----0-------0-------3-------3
B---1-----1---1-----1----1-------1-------0-------0
G---2-----2---2-----2----0-------0-------0-------0
D-2---0h2---2---0h2------2--0h2--2-(2)---0-------0
A----------------------3-----------------2--0h2---
E-------------------------------------3-----------

Am			     C			G
Every day I recognise what's deceased and what's alive
Am				       C                  G
Don't repeat what I've just said until gold has turned to lead
Am				          C            G
All the tales will be told whilst you and I are in the cold
Am				          C		G
But don't think this is the end 'cos it's just become my friend

G		              F
When it's gone, when this is gone
C               G            Am
Just find a feeling, pass it on
[ Tab from: http://www.guitartabs.cc/tabs/c/coral/pass_it_on_tab.html ]
Am					          C		G
For every tear that's cried in shame, there is someone else to blame
Am			C            G
Every crime that I commit is a punishment to fit
Am					  C		 G
I'd accept what's coming round if I could only lose this sound
Am				   C                G
That's been ringing in my ears and tormenting me for years

G		              F
When it's gone, when this is gone
C               G            Am
Just find a feeling, pass it on

(instrumental passage, use verse chords)

G		              F
When it's gone, when this is gone
C               G            Am
Just find a feeling, pass it on
C               G            Am
Just find a feeling, pass it on
C               G            Am
Just find a feeling, pass it on


Ending (electric guitar):

E------------------------------------
B-x2-7-9---x2-7-9---x2-7-9--9---x2---
G-x4-9-11--x4-9-11--x4-9-11-11--x4---
D-x4-9-11--x4-9-11--x4-9-11-11--x4---
A-x4-9-11--x4-9-11--x4-9-11-11--x4---
E------------------------------------

0h2: hammer one
(2): optional note
 x : mute

Hope you liked it! There are a few little electric bits that I 
haven't tabbed, but they're easy to figure out and you can interpret
them how you like.
Comments