Coral - In The Morning Chords & Tabs

 

In The Morning Chords & Tabs

Coral Chords & Tabs

Version: 1 Type: Tab 0 ratings
1 star 2 stars 3 stars 4 stars 5 stars
comments

In The Morning Tab

   
Song - In The Morning
Band - The Coral
Album - The Invisible Invasion
Tabbed By - Marc Banks


Tis a good happy song

Guitar 1

A   - 577655 or x02220
Bm  - 799777 or 224432
C#m - 446654
D   - 557775 or xx0232
E#  - 587565 or 8 8 10 10 10 8

Intro
     
   Bm x3..then  
   A Bm C#m Bm x4 


Verse

A        Bm      C#m           Bm
Shut the bedroom window in the morning

A         Bm         C#m         Bm
Go to the shop, make plans to be leaving

A    Bm    C#m       Bm
              In the morning 

A    Bm    C#m       Bm


A             Bm        C#m           Bm
Thought I was sleeping, it was just a dream

A       Bm  C#m       Bm,
An ally cat chewing on dead leaves

A    Bm    C#m       Bm
              In the morning

A    Bm    C#m       Bm


Chorus

D          C#m               D
Out of the dark and into the light
D                C#m             E#
When the morning comes I will be alright 

Verse

A      Bm      C#m        Bm
When I leave I try not to wake her

A        Bm       C#m         Bm
We had a toast to yesterday's capers

A    Bm    C#m       Bm
              In the morning

A    Bm    C#m       Bm


A            Bm        C#m     Bm
She wrote my name on a red telephone box
[ Tab from: http://www.guitartabs.cc/tabs/c/coral/in_the_morning_tab.html ]
A      Bm              C#m     Bm
When I got there she'd already rubbed it off

A    Bm    C#m       Bm
              In the morning

A    Bm    C#m       Bm


Chours

D          C#m               D
Out of the dark and into the light
D                C#m             E#
When the morning comes I will be alright


A  Bm  C#m Bm x4

D            C#m                  Bm (let ring)
And all this time I've watched it change
                      A
But it's still the same 


A    Bm    C#m       Bm
              In the morning

A    Bm    C#m       Bm
              In the morning

A    Bm    C#m       Bm
              In the morning

A    Bm    C#m       Bm
              In the morning



Guitar 2

Main Riff - Actually played on a keyboard listen to the song for timing.

Play whenever needed

------------------12---14----17-----------------|
--------12---14--------------------14----12-----|
---14-------------------------------------------|
------------------------------------------------|
------------------------------------------------|
------------------------------------------------|

riff used over chorus

---------------------------------------------------------------|
--15--15-----14----14----15----15----14---14-----13x8----------|
---------14-----------14----------14---------14-------14x8-----|
---------------------------------------------------------------|
---------------------------------------------------------------|
---------------------------------------------------------------|

Enjoy.
Comments